Guitar Tabs for D Minor Interval Pattern Exercise

(/) Slide Up  (\) Slide Down  (h) Hammer On  (p) Pull Off  (b) Bend (r) Release (v) Vibrato (x) Muted

Tabs for Song : 

Song lyrics here
E|--------------------------------------------------------------------------
B|--------------------------------------------------------------------------
G|--------------------------------------------------------------------------
D|--12-8--10----8-----------10-7--8-----7-----------8--5--7-----5-----------
A|-----------12----10-12-8-----------10----8--10-7-----------8-----7--8--5--
E|--------------------------------------------------------------------------

Song lyrics here
E|-----------------------------------------------------
B|-----------------------------------------------------
G|-----------------------------------------------------
D|--7--3--5-----3-----------5--2--3-----2--------------
A|-----------7-----5--7--3-----------5-----3--5--1--5--
E|-----------------------------------------------------

Paste any tab in acousterr's tab maker and we'll play it !!!
Now supports capo and sound effects for vibrato/pull-off/hammer/bends/mutes etc !!! Checkout help section
tabs and chords, guitar tabs, music transcription, music technology, deep learning, music information retrieval, transcribe into tabs & chords, chordify, music renditions, songsterr, reverbnation, tabulature, bollywood chords, ultimate guitar, yousician, guitar lessons, acoustic guitar, electric guitar, guitar tuner, 911 tabs