Guitar Tabs for Basic Minor Harmonic Scale Exercise

(/) Slide Up  (\) Slide Down  (h) Hammer On  (p) Pull Off  (b) Bend (r) Release (v) Vibrato (x) Muted

Work your way up, and then back down. Keep in mind these patterns can be started anywhere on the
neck and will fit toghether and follow the same pattern regardless of starting position.

E|--------------------------------0--3-----3--0--------------------------------
B|--------------------------0--3-----------------3--0--------------------------
G|--------------------0--2-----------------------------2--0--------------------
D|--------------0--2-----------------------------------------2--0--------------
A|--------0--2-----------------------------------------------------2--0--------
E|--0--3-----------------------------------------------------------------3--0--
 
E|--------------------------------3--5-----5--3--------------------------------
B|--------------------------3--5-----------------5--3--------------------------
G|--------------------2--4-----------------------------4--2--------------------
D|--------------2--5-----------------------------------------5--2--------------
A|--------2--5-----------------------------------------------------5--2--------
E|--3--5-----------------------------------------------------------------5--3--

E|--------------------------------5--7-----7--5--------------------------------
B|--------------------------5--8-----------------8--5--------------------------
G|--------------------4--7-----------------------------7--4--------------------
D|--------------5--7-----------------------------------------7--5--------------
A|--------5--7-----------------------------------------------------7--5--------
E|--5--7-----------------------------------------------------------------7--5--

E|--------------------------------7--10----10-7--------------------------------
B|--------------------------8--10----------------10-8--------------------------
G|--------------------7--9-----------------------------9--7--------------------
D|--------------7--9-----------------------------------------9--7--------------
A|--------7--10----------------------------------------------------10-7--------
E|--7--10----------------------------------------------------------------10-7--

E|--------------------------------10-12----12-10-------------------------------
B|--------------------------10-12----------------12-10-------------------------
G|--------------------9--12----------------------------12-9--------------------
D|--------------9--12----------------------------------------12-9--------------
A|--------10-12----------------------------------------------------12-10-------
E|--10-12----------------------------------------------------------------12-10-

E|--------------------------------12-15----15-12-------------------------------
B|--------------------------12-15----------------15-12-------------------------
G|--------------------12-14----------------------------14-12-------------------
D|--------------12-14----------------------------------------14-12-------------
A|--------12-14----------------------------------------------------14-12-------
E|--12-15----------------------------------------------------------------15-12-

Use manual mode to free up cursor. Paste any tab in acousterr tab maker and we'll play it !!!
tabs and chords, guitar tabs, music transcription, music technology, deep learning, music information retrieval, transcribe into tabs & chords, chordify, music renditions, songsterr, reverbnation, tabulature, bollywood chords, ultimate guitar, yousician, guitar lessons, acoustic guitar, electric guitar, guitar tuner, 911 tabs