Guitar Tabs for Extras

FINGER PICKING:

1)


E|-----------------------------------2--------------
B|-----------1--------------------3-----3-----------
G|--------0-----0--------------2-----------2--------
D|-----2-----------2--------0-----------------0-----
A|--3-----------------3-----------------------------
E|--------------------------------------------------

2)

E|--------------------------------------------
B|--------------3-----------------------------
G|--------2--------2--------------------------
D|-----4-----4--------4-----------------------
A|--5-----------------------4--2--0-----------
E|-----------------------------------4--2-----


TAPPING:

1)

E|--------------------------------------
B|--------------------------------------
G|--------------------------------------
D|--------------------------------------
A|--5--8--12-8--5-----5--8--12-8--5-----
E|--------------------------------------

2)

E|-----------------------------------------------------
B|--12-5--12-5--12-5--12-5--12-8--12-8--12-8--12-8-----
G|-----------------------------------------------------
D|-----------------------------------------------------
A|-----------------------------------------------------
E|-----------------------------------------------------


tabs and chords, guitar tabs, music transcription, music technology, deep learning, music information retrieval, transcribe into tabs & chords, chordify, music renditions, songsterr, reverbnation, tabulature, bollywood chords, ultimate guitar, yousician, guitar lessons, acoustic guitar, electric guitar, guitar tuner, 911 tabs