Guitar Tabs for Cura

(/) Slide Up  (\) Slide Down  (h) Hammer On  (p) Pull Off  (b) Bend (r) Release (v) Vibrato (x) Muted

Tabs & Chords
BPM : 144.0
Check Track 2 for Chord Positions 

    Em                C              Em                            C        D     Em          
E|--3--------------------0-----3-----2-----0--3--2-----3--------------3-----0-----2--3-----3--
B|--------0-----0-----0-----------------------------------------------------------------------
G|--------------------------------------------------------------------------------------------
D|--------------------------------------------------------------------------------------------
A|-----------------------------------------------------------3-----3--------------------------
E|--------------------------------------------------------------------------------------------

                   C                 D           Em                C              D           Em 
E|--------------------0-----3--3-----0-----2-----3-----3--------------0-----3-----0-----2-----3--
B|-----0-----0-----0-----------------------------------------0-----0-----------------------------
G|-----------------------------------------------------------------------------------------------
D|-----------------------------------------------------------------------------------------------
A|-----------------------------------------------------------------------------------------------
E|-----------------------------------------------------------------------------------------------

       Am    Em                   Em          A           Bm          B           
E|--------------------------------------------------------------2--------------0--
B|-----------------------------------------------------2--2--------3-----4--------
G|-----------------------------------------------2--------------------2-----------
D|-----------------2--------------------2-----2-----------------------------------
A|--------------2--------------------2--------------------------------------------
E|-----0-----3--------------------3-----------------------------------------------

Guitar Tabs for Cura






    Em                C              Em                            C        D     Em          
E|--0-----------------0--------------0-----------------------------0--------2-----0-----------
B|--0-----------------1--------------0-----------------------------1--------3-----0-----------
G|--0-----------------0--------------0-----------------------------0--------2-----0-----------
D|--2-----------------2--------------2-----------------------------2--------0-----2-----------
A|--2-----------------3--------------2-----------------------------3--------------2-----------
E|--0--------------------------------0--------------------------------------------0-----------

                   C                 D           Em                C              D           Em 
E|-----------------0-----------------2-----------0-----------------0--------------2-----------0--
B|-----------------1-----------------3-----------0-----------------1--------------3-----------0--
G|-----------------0-----------------2-----------0-----------------0--------------2-----------0--
D|-----------------2-----------------0-----------2-----------------2--------------0-----------2--
A|-----------------3-----------------------------2-----------------3--------------------------2--
E|-----------------------------------------------0--------------------------------------------0--

       Am    Em                   Em          A           Bm          B           
E|-----0-----0--------------------0-----------0-----------2-----------2-----------
B|-----1-----0--------------------0-----------2-----------3-----------4-----------
G|-----2-----0--------------------0-----------2-----------4-----------4-----------
D|-----2-----2--------------------2-----------2-----------4-----------4-----------
A|-----0-----2--------------------2-----------0-----------2-----------2-----------
E|-----------0--------------------0-----------------------------------------------

tabs and chords, guitar tabs, music transcription, music technology, deep learning, music information retrieval, transcribe into tabs & chords, chordify, music renditions, songsterr, reverbnation, tabulature, bollywood chords, ultimate guitar, yousician, guitar lessons, acoustic guitar, electric guitar, guitar tuner, 911 tabs