Bass Tabs for Cult Of Dionysus

(/) Slide Up  (\) Slide Down  (h) Hammer On  (p) Pull Off  (b) Bend (r) Release (v) Vibrato (x) Muted

CULT OF DIONYSUS by THE ORION EXPERIENCE
BPM : 137



0:14 - verse 1 x2
0:28 - full chorus
0:42 - verse 2 x3
1:02 - verse 1 x2
1:16 - full chorus
1:30 - NO BASS
1:44 - middle 8
1:52 - chorus body x3
2:04 - chorus closer
2:06 - NO BASS
2:18 - verse 1 x2
2:33 - full chorus
2:47 - chorus body x3
2:58 - chorus closer
3:01 - literally just the last note


VERSE 1:
G|--------------------------------------------------------2--2--0--0--------------------------------
D|--------------------------------2--2--0--0--------------------------2-----------4--4--2--4--------
A|--4--4--4--4--2--2--------------------------4--2--0--0-----------------4--------------------2-----
E|--------------------4--4--0--0--------------------------------------------2--2-----------------4--

CHORUS INTRO:

I'm feeling devious..
G|--------------------------------------------------
D|--------------------------------------------------
A|--------------------------4-----------------------
E|--5--------------------4--------------------------

CHORUS BODY:

let's get mischevious... x2
G|-----------------------------6-----6-----9-----9--
D|-----7-----7-----6-----6--------------------------
A|--------------------------4-----4-----7-----7-----
E|--5-----5-----4-----4-----------------------------


CHORUS CLOSER:


G|--------------------------------------------------
D|--------------------------------------------------
A|-----7-----7-----6-----6--2--2--------------------
E|--5-----5-----4-----4-----------------2--2--------


VERSE 2:
G|--------------------------------------------------------------------------------------------------
D|--------------------------2--2--2--2--2--2--2--2--------------------------------------------------
A|--4--4--4--4--4--4--4--4--------------------------------------------------------------------------
E|--------------------------------------------------5--5--5--5--5--5--5--5--2--2--2--2--2--2--2--2--


MIDDLE 8:
G|--------------------------------------------------------------------------------------------------
D|--------------------------------------------------------------------------------------------------
A|--------------------------------------------------2--2--2--2--2--2--2--2--------------------------
E|--5--5--5--5--5--5--5--5--0--0--0--0--0--0--0--0--------------------------4--4--4--4--4--4--4--4--

LITERALLY JUST THE LAST NOTE:
G|-----
D|-----
A|---4\
E|-----

Use manual mode to free up cursor. Paste any tab in acousterr tab maker and we'll play it !!!
tabs and chords, guitar tabs, music transcription, music technology, deep learning, music information retrieval, transcribe into tabs & chords, chordify, music renditions, songsterr, reverbnation, tabulature, bollywood chords, ultimate guitar, yousician, guitar lessons, acoustic guitar, electric guitar, guitar tuner, 911 tabs