Dionysus By Buttertones - Guitar Tabs

(/) Slide Up  (\) Slide Down  (h) Hammer On  (p) Pull Off  (b) Bend (r) Release (v) Vibrato (x) Muted

Tabs for Song : 
BPM : 200

Song lyrics here 
D|--------------------------------2--2--2--2--4--4--4--4-----------------------------
A|--------------------------------4--4--4--4--6--6--6--6-----------------------------
F|---3/3--3--3-----2--2-----2-----3--3--3--3--5--5--5--5--3--3--3-----2--2-----2-----
C|--------------5--------4-----4-----------------------------------5--------4-----4--
G|-----------------------------------------------------------------------------------
D|-----------------------------------------------------------------------------------

D|-----------------6--6--6--9--9--9--9-----6--6-----6--6-----------------------6--6-----6--6--------------------
A|-----------8--8--7--7--7--10-10-10-10----8--8-----8--8-----------------------8--8-----8--8--------------------
F|-----7-----7--7--6--6--6--9--9--9--9-----7--7-----7--7-----------------------7--7-----7--7--------------------
C|--8-----8--8--8-----------------------------------------8--6--------------------------------------------------
G|--------------------------------------------------------------8--6--8--8--------------------------------------
D|--------------------------------------------------------------------------------------------1--1--1---1/---4--
      Help..........the cause bring me some rum with your sweet talk 
D|--10----10-11-10----8--8-----8--8--x3
A|--10-11----------11-8--8-----8--8--
F|--10----------------8--8-----8--8--
C|-----------------------------------
G|-----------------------------------
D|-----------------------------------
..and my request is quite clear .. youve been on my mind all year
D|--10-10-10-10----8--8-----8--8-----10-10-10-10----8--8-----8--8--
A|--10-10-10-10----8--8-----8--8-----10-10-10-10----8--8-----8--8--
F|--10-10-10-10----8--8-----8--8-----10-10-10-10----8--8-----8--8--
C|-----------------------------------------------------------------
G|-----------------------------------------------------------------
D|-----------------------------------------------------------------

D|--10----10-11-10----8--8-----8--8--x3
A|--10-11----------11-8--8-----8--8--
F|--10----------------8--8-----8--8--
C|-----------------------------------
G|-----------------------------------
D|-----------------------------------

D|--10-10-10----8--8-----8--8-----10-10-10----8--8-----8--
A|--10-10-10----8--8-----8--8-----10-10-10----8--8-----8--
F|--10-10-10----8--8-----8--8-----10-10-10----8--8-----8--
C|--------------------------------------------------------
G|--------------------------------------------------------
D|--------------------------------------------------------

D|--6--6-----6--6--------------------6--6--6--6--6--6--5--5--5--5--5--5--3--3--3--3--3--3--
A|--8--8-----8--8--------------------6--6--6--6--6--6--7--7--7--7--7--7--3--3--3--3--3--3--
F|--7--7-----7--7--------------------7--7--7--7--7--7--8--8--8--8--8--8--5--5--5--5--5--5--
C|-----------------8--6--------------8--8--8--8--8--8--8--8--8--8--8--8--6--6--6--6--6--6--
G|-----------------------8--6--8--8--8--8--8--8--8--8--5--5--5--5--5--5--6--6--6--6--6--6--
D|-----------------------------------6--6--6--6--6--6--5--5--5--5--5--5--3--3--3--3--3--3--

D|--6--6--6--6--8--8--8--8--x3
A|--8--8--8--8--10-10-10-10-
F|--8--8--8--8--10-10-10-10-
C|--6--6--6--6--8--8--8--8--
G|--------------------------
D|--------------------------

D|-----------------------------2--2--2--2--4--4--4--4--
A|-----------------------------4--4--4--4--6--6--6--6--
F|--3--3--3-----2--2-----2-----3--3--3--3--5--5--5--5--
C|-----------5--------4-----4--------------------------
G|-----------------------------------------------------
D|-----------------------------------------------------
Whaooooo                          Shobadobadooo
D|--8--8-----8--8-----8--8--8--8-----------------------
A|--9--9-----9--9-----9--9--9--9--11-11-11-11-10----6--
F|--10-10----10-10----10-10-10-10----------------------
C|--10-10----10-10----10-10-10-10----------------------
G|--8--8-----8--8-----8--8--8--8-----------------------
D|--8--8-----8--8-----8--8--8--8-----------------------
Ending
D|--6--6-----6--6--------------------------6--6-----6--6--------------------
A|--8--8-----8--8--------------------------8--8-----8--8--------------------
F|--7--7-----7--7--------------------------7--7-----7--7--------------------
C|--------------------8--6--------------------------------6--7---8/11-8-----
G|--------------------------8--6--8--8--------------------------------------
D|--------------------------------------------------------------------------

D|--6--6-----6--6--------------------------6--6-----6------6/
A|--8--8-----8--8--------------------------8--8-----8------6/
F|--7--7-----7--7--------------------------7--7-----7------7/
C|--------------------8--6---------------------------------6/
G|--------------------------8--6--8--8-----------------------
D|-----------------------------------------------------------

These are my notes.
First tab made very rough. Idk how to make a proper flow.









































tabs and chords, guitar tabs, music transcription, music technology, deep learning, music information retrieval, transcribe into tabs & chords, chordify, music renditions, songsterr, reverbnation, tabulature, bollywood chords, ultimate guitar, yousician, guitar lessons, acoustic guitar, electric guitar, guitar tuner, 911 tabs