Crystal Gazing - Moonspell - Guitar Tabs

Pedro Paix√£o
    
                                                                                                                                                                                                                                                                                                                                                                                                                                                                                                                                                                                                 
E|-------------------------------------|
B|-------------------------------------|
G|---1p2---------------1p2-------------|
D|---0p---x--x--x--x---0p---x--x--x--x-|
A|-------------------------------------|
E|-------------------------------------|

    
                                                                                                                                                                                                                                                                                                                                                                                                                                                                                                                                                                                                                                                                                                                                                                                                                                                                                                                                                                                                                                                                                                                                                                                              
E|-------------------------------------|-----------------------------------|
B|-------------------------------------|-----------------------------------|
G|---1p2---------------1p2-------------|-3p2---------------3p2-------------|
D|---0p---x--x--x--x---0p---x--x--x--x-|-0p---x--x--x--x---0p---x--x--x--x-|
A|-------------------------------------|-----------------------------------|
E|-------------------------------------|-----------------------------------|

    
                                                                                                                                                                                                                                                                                                                                                                                                                                                                                                                                                                                                                                                                                                                                                                                                                                                                                                                                                                                                                                                                                                                                                                                              
E|-------------------------------------|-----------------------------------|
B|-------------------------------------|-----------------------------------|
G|---3p2---------------3p2-------------|-1p2---------------1p2-------------|
D|---0p---x--x--x--x---0p---x--x--x--x-|-0p---x--x--x--x---0p---x--x--x--x-|
A|-------------------------------------|-----------------------------------|
E|-------------------------------------|-----------------------------------|

    
                                                                                                                                                                                                                                                                                                                                                                                                                                                                                                                                                                                                                                                                                                                                                                                                                                                                                                                                                                                                                                                                                                                                                                                              
E|-------------------------------------|-----------------------------------|
B|-------------------------------------|-----------------------------------|
G|---1p2---------------1p2-------------|-3p2---------------3p2-------------|
D|---0p---x--x--x--x---0p---x--x--x--x-|-0p---x--x--x--x---0p---x--x--x--x-|
A|-------------------------------------|-----------------------------------|
E|-------------------------------------|-----------------------------------|

    
                                                                                                                                                                                                                                                                                                                                                                                                                                                                                                                                                                                                                                                                                                                                                                                                                                                                                                                                                                                                                                                                                                                                                                                              
E|-------------------------------------|-----------------------|
B|-------------------------------------|-----------------------|
G|---3p2---------------3p2-------------|2-----2------2p4--4--4-|
D|---0p---x--x--x--x---0p---x--x--x--x-|2-----2------2p---2--2-|
A|-------------------------------------|0-----0------0p---0--0-|
E|-------------------------------------|-----------------------|

    
                                                                                                                                                                                                                                                                                                                                                                                                                                                                                                                                                                                                                                                                                                                                                                                                                                                                                                                                                                                                                                                                                                                                                                                              
E|-------------------------|-----------------------|
B|-------------------------|-----------------------|
G|-----4--4--4-----4--4--2-|5-----5-----5-----5--7-|
D|-----2--2--2-----2--2--2-|7-----7-----7-----7--7-|
A|-----0--0--0-----0--0----|0-----0-----0-----0--0-|
E|-------------------------|-----------------------|

    
                                                                                                                                                                                                                                                                                                                                                                                                                                                                                                                                                                                                                                                                                                                                                                                                                                                                                                                                                                                                                                                                                                                                                                                              
E|-------------------------|-----------------------|
B|-------------------------|-----------------------|
G|-----7--7--7-----7--7--5-|2-----2------2p4--4--4-|
D|-----7--7--7-----7--7--7-|2-----2------2p---2--2-|
A|-----0--0--0-----0--0----|0-----0------0p---0--0-|
E|-------------------------|-----------------------|

    
                                                                                                                                                                                                                                                                                                                                                                                                                                                                                                                                                                                                                                                                                                                                                                                                                                                                                                                                                                                                                                                                                                                                                                                              
E|-------------------------|-----------------------|
B|-------------------------|-----------------------|
G|-----4--4--4-----4--4--2-|5-----5-----5-----5--7-|
D|-----2--2--2-----2--2--2-|7-----7-----7-----7--7-|
A|-----0--0--0-----0--0----|0-----0-----0-----0--0-|
E|-------------------------|-----------------------|

    
                                                                                                                                                                                                                                                                                                                                                                                                                                                                                                                                                                                                                                                                                                                                                                                                                                                                                                                                                                                                                                                                                                                                                                                              
E|-------------------------|-----------------------|
B|-------------------------|-----------------------|
G|-----7--7--7-----7--7--5-|2----------------------|
D|-----7--7--7-----7--7--7-|2----------------------|
A|-----0--0--0-----0--0----|0----------------------|
E|-------------------------|-----------------------|

    
                                                                                                                                                                                                                                                                                                                                                                                                                                                                                                                                                                                                 
E|-------------------------|
B|-------------------------|
G|--7----------------------|
D|--7----------------------|
A|--5----------------------|
E|-------------------------|

    
                                                                                                                                                                                                                                                                                                                                                                                                                                                                                                                                                                                                                                                                                                                                                                                                                                                                                                                                                                                                                                                                                                                                                                                              
E|-------------------------|-----------------------|
B|-------------------------|-----------------------|
G|--------9-----10---------|9--------9-------------|
D|--------9-----10---------|9--------9-------------|
A|--------7-----8----------|7--------7-------------|
E|-------------------------|-----------------------|

    
                                                                                                                                                                                                                                                                                                                                                                                                                                                                                                                                                                                                                                                                                                                                                                                                                                                                                                                                                                                                                                                                                                                                                                                              
E|-------------------------|-----------------------|
B|-------------------------|-----------------------|
G|--5--------5-------------|7----------------------|
D|--5--------5-------------|7----------------------|
A|--3--------3-------------|5----------------------|
E|-------------------------|-----------------------|

    
                                                                                                                                                                                                                                                                                                                                                                                                                                                                                                                                                                                                                                                                                                                                                                                                                                                                                                                                                                                                                                                                                                                                                                                              
E|-------------------------|-----------------------|
B|-------------------------|-----------------------|
G|--------9-----10---------|9--------9-------------|
D|--------9-----10---------|9--------9-------------|
A|--------7-----8----------|7--------7-------------|
E|-------------------------|-----------------------|

    
                                                                                                                                                                                                                                                                                                                                                                                                                                                                                                                                                                                                                                                                                                                                                                                                                                                                                                                                                                                                                                                                                                                                                                                              
E|-------------------------|-----------------------|
B|-------------------------|0--0--0--0--0--0--0--0-|
G|--5--------5-------------|2--2--2--2--2--2--2--2-|
D|--5--------5-------------|2--2--2--2--2--2--2--2-|
A|--3--------3-------------|-----------------------|
E|-------------------------|-----------------------|

    
                                                                                                                                                                                                                                                                                                                                                                                                                                                                                                                                                                                                                                                                                                                                                                                                                                                                                                                                                                                                                                                                                                                                                                                              
E|-------------------------|-----------------------|
B|--0--0--0--0--0--0--0--0-|1--1--1--1--1--1--1--1-|
G|--2--2--2--2--2--2--2--2-|2--2--2--2--2--2--2--2-|
D|--2--2--2--2--2--2--2--2-|2--2--2--2--2--2--2--2-|
A|-------------------------|-----------------------|
E|-------------------------|-----------------------|

    
                                                                                                                                                                                                                                                                                                                                                                                                                                                                                                                                                                                                                                                                                                                                                                                                                                                                                                                                                                                                                                                                                                                                                                                              
E|-------------------------|-----------------------|
B|--3--3--3--3-----3--3--3-|0--0--0--0--0--0--0--0-|
G|--2--2--2--2-----2--2--2-|2--2--2--2--2--2--2--2-|
D|--2--2--2--2-----2--2--2-|2--2--2--2--2--2--2--2-|
A|-------------------------|-----------------------|
E|-------------------------|-----------------------|

    
                                                                                                                                                                                                                                                                                                                                                                                                                                                                                                                                                                                                                                                                                                                                                                                                                                                                                                                                                                                                                                                                                                                                                                                              
E|-------------------------|-----------------------|
B|--0--0--0--0--0--0--0--0-|1--1--1--1--1--1--1--1-|
G|--2--2--2--2--2--2--2--2-|2--2--2--2--2--2--2--2-|
D|--2--2--2--2--2--2--2--2-|2--2--2--2--2--2--2--2-|
A|-------------------------|-----------------------|
E|-------------------------|-----------------------|

    
                                                                                                                                                                                                                                                                                                                                                                                                                                                                                                                                                                                                                                                                                                                                                                                                                                                                                                                                                                                                                                                                                                                                                                                              
E|-------------------------|-----------------------|
B|--3--3--3--3-----3--3--3-|5--5--5--5--5--5--5--5-|
G|--2--2--2--2-----2--2--2-|7--7--7--7--7--7--7--7-|
D|--2--2--2--2-----2--2--2-|7--7--7--7--7--7--7--7-|
A|-------------------------|-----------------------|
E|-------------------------|-----------------------|

    
                                                                                                                                                                                                                                                                                                                                                                                                                                                                                                                                                                                                                                                                                                                                                                                                                                                                                                                                                                                                                                                                                                                                                                                              
E|-------------------------|-----------------------|
B|--5--5--5--5--5--5--5--5-|-5p6--6--5--5--5--5--5-|
G|--7--7--7--7--7--7--7--7-|-4p---4--4--4--4--4--4-|
D|--7--7--7--7--7--7--7--7-|-5p---5--5--5--5--5--5-|
A|-------------------------|-----------------------|
E|-------------------------|-----------------------|

    
                                                                                                                                                                                                                                                                                                                                                                                                                                                                                                                                                                                                                                                                                                                                                                                                                                                                                                                                                                                                                                                                                                                                                                                              
E|-------------------------|-----------------------|
B|---5p3--3--3--3--3--3--3-|5--5--5--5--5--5--5--5-|
G|---5p---5--5--5--5--5--5-|7--7--7--7--7--7--7--7-|
D|---5p---5--5--5--5--5--5-|7--7--7--7--7--7--7--7-|
A|-------------------------|-----------------------|
E|-------------------------|-----------------------|

    
                                                                                                                                                                                                                                                                                                                                                                                                                                                                                                                                                                                                                                                                                                                                                                                                                                                                                                                                                                                                                                                                                                                                                                                              
E|-------------------------|-----------------------|
B|--5--5--5--5--5--5--5--5-|-5p6--6--5--5--5--5--5-|
G|--7--7--7--7--7--7--7--7-|-4p---4--4--4--4--4--4-|
D|--7--7--7--7--7--7--7--7-|-5p---5--5--5--5--5--5-|
A|-------------------------|-----------------------|
E|-------------------------|-----------------------|

    
                                                                                                                                                                                                                                                                                                                                                                                                                                                                                                                                                                                                                                                                                                                                                                                                                                                                                                                                                                                                                                                                                                                                                                                              
E|-------------------------|1-----------3-----1-------|
B|---5p3--3--3--3--3--3--3-|1-----------1-----1-------|
G|---5p---5--5--5--5--5--5-|2-----------2-----2-------|
D|---5p---5--5--5--5--5--5-|3-------------------------|
A|-------------------------|--------------------------|
E|-------------------------|--------------------------|

    
                                                                                                                                                                                                                                                                                                                                                                                                                                                                                                                                                                                                                                                                                                                                                                                                                                                                                                                                                                                                                                                                                                                                                                                              
E|--0----------------------|1-----------3-----1-------|
B|--3----------------------|1-----------1-----1-------|
G|--2----------------------|2-----------2-----2-------|
D|-------------------------|3-------------------------|
A|-------------------------|--------------------------|
E|-------------------------|--------------------------|
tabs and chords, guitar tabs, music transcription, music technology, deep learning, music information retrieval, transcribe into tabs & chords, chordify, music renditions, songsterr, reverbnation, tabulature, bollywood chords, ultimate guitar, yousician, guitar lessons, acoustic guitar, electric guitar, guitar tuner, 911 tabs