Bass Tabs for Creed - Don't Stop Dancing

Creed - Don't Stop Dancing

Pre-Chorus
G|-----------------------------------------------------------------------------------
D|----------------------------------------5\-----------------------------------------
A|--------------------2--3--3--3--3--3-------------------------3--3--3--5--5--5--5--
E|--5--5--3--5--5--5---------------------------0--0--0--0--0--0----------------------

Chorus
G|------------------------------------------------------------------------------------------------
D|------------------------------------------------------------------------------------------------
A|-----------5--5-----------------2--3--3--3--3--3--5-----------5--5--5--5--4--4--4--4--4--4--3~--
E|--3--3--3--------5--5--5--5--5-----------------------3--3--3------------------------------------

Verse
G|-----------------------------------------------
D|-----------------------------------------------
A|--------------------3--3--2--2--2--3--2--0-----
E|--3--3---0h2--2--2--------------------------3--

Pre Guitar Solo Chorus
G|------------------------------------------------------------------------------------------------
D|------------------------------------------------------------------------------------------------
A|-----------5--5-----------------2--3--3--3--3--3--5-----------5--5--5--5--4--4--4--4--4--4--3~--
E|--3--3--3--------5--5--5--5--5-----------------------3--3--3------------------------------------


Verse Variation for Guitar Solo
G|------------------------------------------------------------------------------------
D|------------------------------------------------------------------------------------
A|--------------3--3--2--2---2h3p2--0--2-------------------------3--3--2--2--0--0-----
E|--3--3---0/2----------------------------3--3--2---2h3p2--0--2--------------------3--

Post Guitar Solo
G|-------------------------------------------------------------------------------------------------------------------
D|-------------------------------------------------------------------------------------------------------------------
A|--5--5--4--4--4--4--4--3--3--------------5--5--4--4--4--4--3--3--------2--3--4--5--5---5h7p5--4--4--4--3--3--3-----
E|-----------------------------3--3--3--3--------------------------3--3-------------------------------------------3--

G|------------------------------------------
D|------------------------------------------
A|--5--5--4--4--4--4--3--3--3--3--3--3------
E|--------------------------------------3~--

Pre Last Chorus

G|--------------------------------------------------
D|--------------------------------------------------
A|--3--3--3--3--3--3--3--3--3--3--3--3--5--5--5--5--
E|--------------------------------------------------

Last Note -> G





tabs and chords, guitar tabs, music contests, music covers, songsterr, reverbnation, renditions, tabulature, bollywood chords, ultimate guitar, yousician, guitar lessons, torrins, fender, gibson, acoustic guitar, electric guitar, youtube covers, gootar, guitar tuner, A-Z tabs, 911 tabs