Guitar Tabs for Don't Stop Me Now

(/) Slide Up  (\) Slide Down  (h) Hammer On  (p) Pull Off  (b) Bend (r) Release (v) Vibrato (x) Muted

Tabs for Song : 
BPM : 10000

Song lyrics here 
E|-----------------------1--0--------------------------------------------------------------------0--1------
B|--------------------1-----------------1-----------------------------------------------------3-----------
G|--0--------------2-----------------------2--0--------------2-----0--------0-----2--3--------------------
D|-----3-----3--3-----------------------------------3-----------------3-----------------------------------
A|--------------------------------------------------------------------------------------------------------
E|--------------------------------------------------------------------------------------------------------

Song lyrics here 
E|--5--6--5-----3--1-----------1--5--5--6--5-----3--2--3--5-----------6-----5--3--------------6--5--3--3--3--
B|-----------------------3--------------------------------------3--------------------------------------------
G|--------------------------------------------------------------------------------3--------------------------
D|-----------------------------------------------------------------------------------------------------------
A|-----------------------------------------------------------------------------------------------------------
E|-----------------------------------------------------------------------------------------------------------

E|--------------------0--0--0--1--3-----------------------------1--0-----------------------------------------
B|-----------1--3--------------------------------------------1--------------1--------------------------------
G|--3--3--3--------------------------2--2--0--------------2--------------------2--0-----------2--0--------0--
D|--------------------------------------------3--3-----3--------------------------------3--3--------3--------
A|-----------------------------------------------------------------------------------------------------------
E|-----------------------------------------------------------------------------------------------------------

E|--------------------------------------1--0--------5--5--5--3--1-----------------------------------------0--1--
B|--------1--------------------------1-----------1-----------------------------------------------1--1--3--------
G|--2--3-----------2--2--0--------------------------------------------2--0-----0-----2-----3--------------------
D|--------------------------3--3--------------------------------------------3-----------------------------------
A|--------------------------------------------------------------------------------------------------------------
E|--------------------------------------------------------------------------------------------------------------

E|--5--6--5--3--1--------------3--5--5--6--5--3--3--2--2--2--2--3--5--3--3--2--2--2--2--3--5--6--------6--6--5--
B|-----------------------3--------------------------------------------------------------------------------------
G|--------------------------------------------------------------------------------------------------------------
D|--------------------------------------------------------------------------------------------------------------
A|--------------------------------------------------------------------------------------------------------------
E|--------------------------------------------------------------------------------------------------------------

E|--3--1--1--1--1--1--1--3-----------------------1--------------------------------------------------------------
B|--------------------------------------------1-----------------------------------------------1-----------------
G|--------------------------------------2--3--------------2--2--2--0-----0--2--------0--2--2-----2-----2-----3--
D|--------------------------------------------------------------------3-----------------------------------------
A|--------------------------------------------------------------------------------------------------------------
E|--------------------------------------------------------------------------------------------------------------

E|-----1-----1--1--------------------------------5--5--5--6--5--------6--------5--3-----------------------------
B|--1-----------------------------------------------------------3--------------------------------1--3-----------
G|-----------------0--2--0--------0--2--------------------------------------------------3--3--3-----------------
D|--------------------------3-----------------------------------------------------------------------------------
A|--------------------------------------------------------------------------------------------------------------
E|--------------------------------------------------------------------------------------------------------------

E|--6--------5--3--------------------------6-----5-----3-----------------------------------------1-----0--0--0--
B|--------------------------------1--3-----------------------------------------------1-----3--------------------
G|--------------------3--3--3--3-----------------------------3-----3-----3-----3--------------------------------
D|--------------------------------------------------------------------------------------------------------------
A|--------------------------------------------------------------------------------------------------------------
E|--------------------------------------------------------------------------------------------------------------

E|--1-----3--1--
B|--------------
G|--------------
D|--------------
A|--------------
E|--------------


Use manual mode to free up cursor. Paste any tab in acousterr tab maker and we'll play it !!!
tabs and chords, guitar tabs, music transcription, music technology, deep learning, music information retrieval, transcribe into tabs & chords, chordify, music renditions, songsterr, reverbnation, tabulature, bollywood chords, ultimate guitar, yousician, guitar lessons, acoustic guitar, electric guitar, guitar tuner, 911 tabs