Guitar Tabs for Crazy He Calls Me

(/) Slide Up  (\) Slide Down  (h) Hammer On  (p) Pull Off  (b) Bend (r) Release (v) Vibrato (x) Muted

Tabs for Song : 
BPM : 200

Song lyrics here 
E|-----4--------------------------------------------------------------------------------1-----------
B|--------6--7--4--6--2---------2h4--1---1h2-----1------------2h4--1---1/2-----1-----1-----1--------
G|--------------------------------------------3-----1-----------------------3-----------------------
D|--6-----------------------------------------------------------------------------------------------
A|--------------------------------------------------------------------------------------------------
E|--------------------------------------------------------------------------------------------------

E|------2/1------------------4\5--6--------------6---4\2--1--4--------------4-----------------------
B|-----------3--4--------------------6--------------------------4--------------6--7--4--6--2--------
G|--3-----------------------------------------------------------------------------------------------
D|-----------------------------------------------------------------------6--------------------------
A|--------------------------------------------------------------------------------------------------
E|--------------------------------------------------------------------------------------------------

E|---------------------------------------------------------------------------2\1--------
B|---2h4--1---1/2-----1------------2h4--1---1h2-----1--1-----1--------------------3--4--
G|-----------------3-----1-----------------------3-----------------------3--------------
D|--------------------------------------------------------3-----------------------------
A|--------------------------------------------------------------------------------------
E|--------------------------------------------------------------------------------------

E|---4/5---5/6--------6---4\2--1--------------------------------------------------------------------
B|--------------6--------------------2--------2--4-----------2---2/4--5--2v----2---2/4--4--7--2--4--
G|--------------------------------4-----------------4v----------------------------------------------
D|--------------------------------------------------------------------------------------------------
A|--------------------------------------------------------------------------------------------------
E|--------------------------------------------------------------------------------------------------

E|--------------------------------------------3--1-----------------6--6-----------
B|--5--4---------------5/7--5--4--2--------2--------2--2-----------------6---6/9--
G|--------3--3--------------------------------------------------6-----------------
D|--------------------------------------------------------------------------------
A|--------------------------------------------------------------------------------
E|--------------------------------------------------------------------------------

Song lyrics here 
E|-----4-----------------------------------------------------------------------------1-----------
B|--------6--7--4--6--2---------2h4--1---1/2-----1------------2h4--1--2-----1-----1-----1--------
G|--------------------------------------------3-----1--------------------3-----------------------
D|--6--------------------------------------------------------------------------------------------
A|-----------------------------------------------------------------------------------------------
E|-----------------------------------------------------------------------------------------------

E|------2\1---------------4/5--6--------6---4\2--1-----------------------------------------
B|-----------3--4-----------------6--------------------2--2--------2--4--------4--4--5--2--
G|--3-----------------------------------------------4--------------------4-----------------
D|-----------------------------------------------------------------------------------------
A|-----------------------------------------------------------------------------------------
E|-----------------------------------------------------------------------------------------

E|---------------------------------------------------------2/3--------------------4--3--------
B|--5---2/4--4--------7--5--4---------2/4--4--------------------2--4--1--------2--------2--2--
G|--------------------------------------------3--3--------------------------------------------
D|--------------------------------------------------------------------------------------------
A|--------------------------------------------------------------------------------------------
E|--------------------------------------------------------------------------------------------

E|-----6--6--------------------------4--------------------------------------------
B|-----------6--6---6/9v----------------6--7--4--6--2--------4--1---1\2-----1-----
G|--6--------------------------------------------------------------------3-----1--
D|--------------------------------6-----------------------------------------------
A|--------------------------------------------------------------------------------
E|--------------------------------------------------------------------------------

E|-----------------------1---------------2\1---------------4/5---5/6-----
B|---2/4--1--2-----1--1-----1-----------------3--4--------------------6--
G|--------------3--------------------3-----------------------------------
D|-----------------------------------------------------------------------
A|-----------------------------------------------------------------------
E|-----------------------------------------------------------------------

E|--6---4\2--1--------1--------------
B|---------------------------2\-4/2--
G|-----------------------1-----------
D|-----------------------------------
A|-----------------------------------
E|-----------------------------------

Use manual mode to free up cursor. Paste any tab in acousterr tab maker and we'll play it !!!
tabs and chords, guitar tabs, music transcription, music technology, deep learning, music information retrieval, transcribe into tabs & chords, chordify, music renditions, songsterr, reverbnation, tabulature, bollywood chords, ultimate guitar, yousician, guitar lessons, acoustic guitar, electric guitar, guitar tuner, 911 tabs