Bass Tabs for Crazy

(/) Slide Up  (\) Slide Down  (h) Hammer On  (p) Pull Off  (b) Bend (r) Release (v) Vibrato (x) Muted

Tabs for Song : Crazy
BPM : 100

    Who do you, who do you, who do you think you are           ha ha ha    bless your soul                               Crazy
G|-----------------------------------------------------------------------------------------------
D|-----------------------------------------------------------------------------------------------
A|--3--3--3--3--3--3--3-----------------------6--------6--6--------6-----6--6--------------------
E|--------------------------------------------------6--------6--8--------------------8--6--4-----
         ha, do you really think you're in control
G|--------------------------------------------------------------
D|--------------------------------------------------------3--5--------
A|-----------------------6--6--------------------------5-----------1--
E|--4-----4--4-----4--------------0--1--2--3-----3--3-----------------

  Tweede keer refrein
  Crazy                                            Crazy
G|-----------------------------------------------------------------------------------------------
D|--------------------------------------------3-----1-----1--1-----1--------1-----1--1-----------
A|--3--------3--3-----3-----3--3--1--3--1--3-----3--------------------3--1-----------------3--1--
E|--------3-----------------------------------------------------------------------------3--------

G|----------------------------------------------------------------------------------------
D|--------------------6--8--6--------------------------------------------5--7--3--5--------
A|-----------------6--------------6--8--6--------------------------3--5-----------------3--
E|--4-----4--4-----------------------------4--6--4--3-----3-----3--------------------------

Song lyrics here 
G|--
D|--
A|--
E|--

Use manual mode to free up cursor. Paste any tab in acousterr tab maker and we'll play it !!!
tabs and chords, guitar tabs, music transcription, music technology, deep learning, music information retrieval, transcribe into tabs & chords, chordify, music renditions, songsterr, reverbnation, tabulature, bollywood chords, ultimate guitar, yousician, guitar lessons, acoustic guitar, electric guitar, guitar tuner, 911 tabs