Guitar Tabs for Composition Guitar 2

(/) Slide Up  (\) Slide Down  (h) Hammer On  (p) Pull Off  (b) Bend (r) Release (v) Vibrato (x) Muted

Tabs for Song : 
BPM : 300

Intro x2
E|--------------------------------------------------------------------------
B|--------------------------------------------------------------------------
G|--------------------2--2--2--3--3--3--------------------2--2--2--3--3--3--
D|--2--2--2--6--6--6--------------------2--2--2--6--6--6--------------------
A|--------------------------------------------------------------------------
E|--------------------------------------------------------------------------

Verse x5
E|--------------------------------------------------------------------------
B|--------------------------------------------------------------------------
G|--------------------2--2--2--3--3--3--------------------2--2--2--3--3--3--
D|--2--2--2--6--6--6--------------------2--2--2--6--6--6--------------------
A|--------------------------------------------------------------------------
E|--------------------------------------------------------------------------

chorus x2
E|-----------------------------------------------------------
B|-----------------------------------------------------------
G|--9--7--9--9--9--7--------------9--7--9--9--9--------------
D|--9--7--9--9--9--7--9--9--9--9--9--7--9--9--9--9--9--9--9--
A|--7--5--7--7--7--5--9--9--9--9--7--5--7--7--7--9--9--9--9--
E|--------------------7--7--7--7-----------------7--7--7--7--

Verse [guitar solo]
E|--------------------------------------------------------------------------
B|--------------------------------------------------------------------------
G|--------------------2--2--2--3--3--3--------------------2--2--2--3--3--3--
D|--2--2--2--6--6--6--------------------2--2--2--6--6--6--------------------
A|--------------------------------------------------------------------------
E|--------------------------------------------------------------------------

E|--------------------------------------------------------------
B|--------------------------------------------------------------
G|--9--7--9--9--9--7--------------9--7--9--9--9--7--------------
D|--9--7--9--9--9--7--9--9--9--9--9--7--9--9--9--7--9--9--9--9--
A|--7--5--7--7--7--5--9--9--9--9--7--5--7--7--7--5--9--9--9--9--
E|--------------------7--7--7--7--------------------7--7--7--7--

Verse x3
E|--------------------------------------------------------------------
B|--------------------------------------------------------------------
G|--------------------------------------------------------------------
D|-----------------------0--2--0--2-----------------------0--2--0--2--
A|--------------0--1--2--------------------------0--1--2--------------
E|--0--0--0--4-----------------------0--0--0--4-----------------------

Ending
E|-----------------------------
B|-----------------------------
G|-----------------------------
D|-----------------------0--2v-
A|--------------0--1--2--------
E|--0--0--0--4-----------------






tabs and chords, guitar tabs, music transcription, music technology, deep learning, music information retrieval, transcribe into tabs & chords, chordify, music renditions, songsterr, reverbnation, tabulature, bollywood chords, ultimate guitar, yousician, guitar lessons, acoustic guitar, electric guitar, guitar tuner, 911 tabs