Bass Tabs for Compo1

(/) Slide Up  (\) Slide Down  (h) Hammer On  (p) Pull Off  (b) Bend (r) Release (v) Vibrato (x) Muted

Tabs for Song : 
BPM : 200

Song lyrics here 
G|-----------------------------------------------------------------------------------------
D|-----------7--9-----9--7-----------------------------------------------7--9-----9--7-----
A|--9-----9-----------------9-----9--7-----5--5--5--7--7--7--7--9--9--9-----------------9--
E|-----------------------------------------------------------------------------------------

G|-----------------------9--------9--------------9--------9-----9--7-----------------------
D|--------------------------------------------------------------------9--7-----7--5--7-----
A|-----9--7-----7--7--7--------7--------7--7--7--------7-----------------------------------
E|-----------------------------------------------------------------------------------------

G|-----9--------7--5-----------------------------7--7--7--7-----7--7--
D|--5--------5--------7-----7--5--7------7/9--------------------------
A|--------------------------------------------------------------------
E|--------------------------------------------------------------------

G|--------------------------------------------------------
D|-----------------------9--------9--7--------------------
A|--9-----9--7--9-----7--------7--------9-----9--7--9-----
E|--------------------------------------------------------

G|--------------------------------------------------------------------------
D|-----12----12-12-11-9-----9--7--9-----7--12----12-12-11-9-----9--7--9-----
A|--9-----------------------------------------------------------------------
E|--------------------------------------------------------------------------

G|-----9--7-----------------------9--------7--5-----------------------------7--7--7--7-----7--7--
D|--7--------7-----7--5--7-----5--------5--------7-----7--5--7------7/9--------------------------
A|-----------------------------------------------------------------------------------------------
E|-----------------------------------------------------------------------------------------------

G|-----------------------------------------------------------------------------------------
D|-----------7--9-----9--7-----------------------------------------------7--9-----9--7-----
A|--9-----9-----------------9-----9--7-----5--5--5--7--7--7--7--9--9--9-----------------9--
E|-----------------------------------------------------------------------------------------

G|-----------------------9--------9--------------9--------9-----9--7-----------------------
D|--------------------------------------------------------------------9--7-----7--5--7-----
A|-----9--7-----7--7--7--------7--------7--7--7--------7-----------------------------------
E|-----------------------------------------------------------------------------------------

G|-----9--------7--5-----------------------------7--7--7--7-----7--7--
D|--5--------5--------7-----7--5--7------7/9--------------------------
A|--------------------------------------------------------------------
E|--------------------------------------------------------------------

G|--------------------------------------------------------
D|-----------------------9-----9--9--7--------------------
A|--9-----9--7--9-----7-----------------9-----9--7--9-----
E|--------------------------------------------------------

G|--------------------------------------------------------------
D|-----12----12-12-11-9-----9--7--9-----7--12----12-12-11-9-----
A|--9-----------------------------------------------------------
E|--------------------------------------------------------------

G|-----------------9--7-----------------------
D|--9--7--9-----7--------9--7-----7--5--7-----
A|--------------------------------------------
E|--------------------------------------------

G|-----9-----9--7--5--------------------
D|--5-----------------7-----7--5--7-----
A|--------------------------------------
E|--------------------------------------

G|-----------7--7--7--7-----7--7-----
D|---7/9-----------------------------
A|-----------------------------------
E|-----------------------------------
tabs and chords, guitar tabs, music transcription, music technology, deep learning, music information retrieval, transcribe into tabs & chords, chordify, music renditions, songsterr, reverbnation, tabulature, bollywood chords, ultimate guitar, yousician, guitar lessons, acoustic guitar, electric guitar, guitar tuner, 911 tabs