Guitar Tabs for Coldplay - Yellow

Coldplay - Yellow

Tuning - > E-A-D-G-B-Eb

Intro

B  B11  B 2x

     (B)     (F#6(11)) (E7M)       (B)
D|--------------------------------------------
B|--------------------------------------------
G|---9b11r9--13b15r13--4b-6r4------9b11r9--8--
D|--------------------------------------------
A|--------------------------------------------
E|--------------------------------------------

1st Verse

(B)
 Look at the stars
 
                    (F#6(11))
Look how the shine for you

                   (E7M)
And everything you do, yeah they were all yellow

(B)
 I came along
 
                    (F#6(11))
I wrote a song for you

                        (E7M)                     (B)
And all the things you do, and it was called yellow


(B)                 (F#6(11))
  So then I took my turn
                         (E7M)
Oh, what a thing to' ve done
                   (B)  (B11)  (B)
And it was all yellow

Chorus

(E7M)            (G#m7)             (F#6(11))
    You're skin, oh yeah your skin and bones
    
(E7M)         (G#m7)            (F#6(11))
    Turn in____to something beautiful
    
(E7M)         (G#m7)         (F#6(11))    (E7M)
    Do you know, you know I love you so
    
(E7M)
   You know I love you so

Pos-Chorus

B  B11  B 2x

     (B)     (F#6(11)) (E7M)       (B)
D|--------------------------------------------
B|--------------------------------------------
G|---9b11r9--13b15r13--4b-6r4------9b11r9--8--
D|--------------------------------------------
A|--------------------------------------------

2nd Verse

(B)                                    (F#6(11))
 I swam across, I jumped across for you
 
                     (E7M)
Oh, what a thing to do, 'Cause you were all yellow

(B)                                  (F#6(11))
 I drew a line, I drew a line for you
 
                     (E7M)
Oh, what a thing to do

                      (B)  (B11)  (B)
And it was all yellow

2nd Chorus

(E7M)      (G#m7)         (F#6(11))
 You're skin, oh yeah your skin and bones
 
(E7M)      (G#m7)             (F#6(11))
   Turn in____to something beautiful
   
(E7M)     (G#m7)          (F#6(11))      (E7M)
  Do you know, for you  I'd bleed myself dry
  
(E7M)
    For you I bleed myself dry

2nd Pos-Chorus

     (B)     (F#6(11)) (E7M)       (B)
D|--------------------------------------------
B|--------------------------------------------
G|---9b11r9--13b15r13--4b-6r4------9b11r9--8--
D|--------------------------------------------
A|--------------------------------------------

Bridge

     (B)
It's true

                         (F#6(11))
Look how they shine for you

                         (E7M)
Look how they shine for you

                        (B)
Look how they shine for... you

                         (F#6(11))
Look how they shine for you

                         (E7M)
Look how they shine for you


Look how they shine

Outro

(B)
 Look at the stars
 
                     (F#m7(11))
 Look how the shine for you
 
                    (E7M)
 And everything you  do
 
 ---------------------------------------------------------------------------------------
 Chords
 
    B    B11   E7M
D|--0-----0-----0--
B|--4-----5-----0--
G|--4-----4-----1--
D|--4-----4-----2--
A|--2-----2-----2--
E|--------------0--

  F#6(11) F#m7(11)   G#m7
D|--0--------------------
B|--0--------0--------4--
G|--3--------2--------4--
D|--4--------2--------4--
A|--4--------------------
E|--2--------2--------4--

 
 **When you play B and the next chord isn't B11, you can do this B shape!***
 
    B 
D|--0--
B|--0--
G|--8--
D|--9--
A|--9--
E|--7--

 
tabs and chords, guitar tabs, music transcription, music technology, deep learning, music information retrieval, transcribe into tabs & chords, chordify, music renditions, songsterr, reverbnation, tabulature, bollywood chords, ultimate guitar, yousician, guitar lessons, acoustic guitar, electric guitar, guitar tuner, 911 tabs