Bass Tabs for Coldplay - Yellow

Coldplay - Yellow 

Intro & Post-Chorus- (Pizzicato 16x)
G|----------
D|----------
A|-----9----
E|--7-----0-

Verse - (Pizzicato 16x)
G|-----------/----------
D|-----------/----------
A|-----9--7--/-2/-9--7--
E|--7--------/----------

Pre-Chorus 
G|-----------------------------------------------------/-------------------------------------------------
D|-----------------------------------------------------/-------------------------------------------------
A|---------------------------7h9--9--9--9--9--9--9--9--/-2--2--2--2--2--2--2--2--2--2--2--2--2--2--2--2--
E|--7--7--7--7--7--7--7--7-----------------------------/-------------------------------------------------

Chorus
G|--------------------------------------------------------------------------
D|-----------9-----------------------9-----------------------9--------------
A|--7--9--9-----11-9--9--7--7--9--9-----11-9--9--7--7--9--9-----11-9--9--7--
E|--------------------------------------------------------------------------

Last Chorus - (Pizzicato 16x)
G|-----------
D|-----------
A|--2--------
E|-----2--0--

Last Verse
G|-----------
D|-----4--2--
A|--2--------
E|-----------
tabs and chords, guitar tabs, music contests, music covers, songsterr, reverbnation, renditions, tabulature, bollywood chords, ultimate guitar, yousician, guitar lessons, torrins, fender, gibson, acoustic guitar, electric guitar, youtube covers, gootar, guitar tuner, A-Z tabs, 911 tabs