Guitar Tabs for Cm Punk

(/) Slide Up  (\) Slide Down  (h) Hammer On  (p) Pull Off  (b) Bend (r) Release (v) Vibrato (x) Muted

Tabs for Song : CM PUNK
BPM : 200

INTRO Come when evryone comes in, Finger picking these notes 
E|--9--9--9--9--9--9--9--9--9--9--9--9--7--7--7--7---
B|--9--9--9--9--10-10-10-10-9--9--9--9--7--7--7--7--
G|--9--9--9--9--9--9--9--9--9--9--9--9--8--8--8--8--
D|--9--9--9--9--11-11-11-11-9--9--9--9--9--9--9--9--
A|--7--7--7--7--9--9--9--9--11-11-11-11-9--9--9--9--
E|--------------------------9--9--9--9--7--7--7--7--

VERSE 1 REPEAT^

To go or stay,
Don't be afraid
The waves we will chase
If you come our way


CHORUS1 (delay on)

Its all for yo-u,                                   The way we do-o 
E|--0-----------0-----------9-----------9-----------0-----------0-----------9-----------9--------
B|--0-----------0-----------9-----------9-----------0-----------0-----------9-----------9--------
G|--6-----------8-----------9-----------9-----------6-----------8-----------9-----------9--------
D|--7-----------9-----------9-----------9-----------7-----------9-----------9-----------9--------
A|--7-----------9-----------7-----------7-----------7-----------9-----------7-----------7--------
E|--5-----------7-----------0-----------0-----------5-----------7-----------0-----------0--------
    
    If you throw yourself our way,                  You'll feel the same as we do
E|--0-----------0-----------4-----------4-----------0-----------0-----------
B|--0-----------0-----------4-----------5-----------0-----------0-----------
G|--6-----------8-----------5-----------4-----------6-----------8-----------
D|--7-----------9-----------4-----------6-----------7-----------9-----------
A|--7-----------9-----------6-----------4-----------7-----------9-----------
E|--5-----------7-----------4-----------------------5-----------7--------
                                                                            STOP! (8BARS come in with everyone)
 

POSTCHORUS   (Strum along to dance pattern)
E|--9--9--9--9--------
B|--9--9--9--9--------
G|--9--9--9--9--------
D|--9--9--9--9--------
A|--7--7--7--7--------
E|--0--0--0--0--------

                              
                            
 INTRO  x1
 
 
 VERSE 2 (same as v1)
 To jump from here,
 It seems so clear,
 You're good at nothing,
 Your vibe is something
 
 
 CHORUS (flick on delay)
 It's all for you,
 The way we do,
 If you throw yourself our way,
 You'll feel the same as we do               STOP 16 bars this time
 
 
 POSTCHORUS2
 
 
 CHORUS (strum along chords, no more delay)
 It's all for you,
 The way we do,
 If you throw yourself our way,
 You'll feel the same as we do 
 

Use manual mode to free up cursor. Paste any tab in acousterr tab maker and we'll play it !!!
tabs and chords, guitar tabs, music transcription, music technology, deep learning, music information retrieval, transcribe into tabs & chords, chordify, music renditions, songsterr, reverbnation, tabulature, bollywood chords, ultimate guitar, yousician, guitar lessons, acoustic guitar, electric guitar, guitar tuner, 911 tabs