Ukulele Tabs for Cicha Noc

                                        "Cicha Noc
                      
                      
A|-----0-----------------0--------------5-----5-----2--------3--3--------
E|--3-----3-----0-----3-----3-----0-----------------------------------3--
C|-----------------------------------------------------------------------
G|-----------------------------------------------------------------------

A|--0--0-----3--2--0--------0--------------0--0-----3--2--0--------0-----
E|-----------------------3-----3-----0--------------------------3-----3--
C|-----------------------------------------------------------------------
G|-----------------------------------------------------------------------

A|--------5--5-----8--5--2-----3-----7-----3-----------------------------------
E|--0--------------------------------------------3--0-----3--1-----------------
C|--------------------------------------------------------------2-----0-----0--
G|-----------------------------------------------------------------------------


tabs and chords, guitar tabs, music transcription, music technology, deep learning, music information retrieval, transcribe into tabs & chords, chordify, music renditions, songsterr, reverbnation, tabulature, bollywood chords, ultimate guitar, yousician, guitar lessons, acoustic guitar, electric guitar, guitar tuner, 911 tabs