Guitar Tabs for Chord Chart

Major & Minor Triad Chord Chart:

          E     A     C     D     G     Em    Am    Dm                                               
E|--------0-----0-----0-----2-----3-----0-----0-----1----
B|--------0-----4-----1-----3-----0-----0-----1-----3----
G|--------1-----3-----0-----2-----0-----0-----2-----2----
D|--------2-----2-----2-----0-----0-----2-----2-----0----
A|--------2-----0-----3-----------2-----2-----0----------
E|--------0-----------------------3-----0----------------


Major 7th Chord Chart:

          Emaj7 Amaj7 Cmaj7 Dmaj7 Gmaj7 Fmaj7
E|--------0-----0-----0-----2-----2-----0----
B|--------0-----2-----0-----2-----0-----1----
G|--------1-----1-----0-----2-----0-----2----
D|--------1-----2-----2-----0-----0-----3----
A|--------2-----0-----3-----------x-----3----
E|--------0-----------------------3----------


Dominant 7th Chord Chart:

          E7    A7    C7    D7    G7    B7
E|--------0-----0-----0-----2-----1-----2----
B|--------3-----2-----1-----1-----0-----0----
G|--------1-----0-----3-----2-----0-----2----
D|--------2-----2-----2-----0-----0-----1----
A|--------2-----0-----3-----------2-----2----
E|--------0-----------------------3----------



Minor 7th Chord Chart:

         Em7   Am7   Gm7   Dm7   Bm7                                               
E|--------0-----0-----1-----1-----2-----
B|--------3-----1-----0-----1-----0-----
G|--------0-----0-----3-----2-----2-----
D|--------2-----2-----3-----0-----0-----
A|--------2-----0-----x-----------2-----
E|--------0-----------3-----------------



Sus 2,4,7,9 Chords  

          Dsus2    Asus2    Esus4    Asus4    Dsus4                                   
E|--------0--------0--------0--------0--------3-------------
B|--------3--------0--------0--------3--------3-------------
G|--------2--------2--------2--------2--------2-------------
D|--------0--------2--------2--------2--------0-------------
A|-----------------0--------2--------0----------------------
E|--------------------------0-------------------------------



Add 6,9 Chords

                            Fadd9    Cadd9    Dadd9    Eadd9    Gadd9    Aadd9    Badd9                                                         
E|--------------------------3--------3--------0--------2--------3--------0-----------------------------
B|--------------------------1--------3--------3--------0--------0--------0--------4---------------------
G|--------------------------2--------0--------0--------1--------0--------2--------4---------------------
D|--------------------------3--------2--------4--------2--------0--------2--------4---------------------
A|-----------------------------------3--------5-----------------0--------0--------4--------------------
E|--------------------------------------------------------------3-----------------7-----------------
tabs and chords, guitar tabs, music contests, music covers, songsterr, reverbnation, renditions, tabulature, bollywood chords, ultimate guitar, yousician, guitar lessons, torrins, fender, gibson, acoustic guitar, electric guitar, youtube covers, gootar, guitar tuner, A-Z tabs, 911 tabs