Guitar Tabs for Chord Progs

Chord Progs:

1)

    E              D              C              E
E|--0--0--0--0-----2--2--2--2-----0--0--0--0-----0--0--0--0--
B|--0--0--0--0-----3--3--3--3-----1--1--1--1-----0--0--0--0--
G|--1--1--1--1-----2--2--2--2-----0--0--0--0-----1--1--1--1--
D|--2--2--2--2-----0--0--0--0-----2--2--2--2-----2--2--2--2--
A|--2--2--2--2--------------------3--3--3--3-----2--2--2--2--
E|--0--0--0--0-----------------------------------0--0--0--0--

2) 


E|--1--1--1--1-----1--1--1--1-----0--0--0--0-----------------
B|--1--1--1--1-----3--3--3--3-----1--1--1--1-----------------
G|--2--2--2--2-----2--2--2--2-----2--2--2--2-----------------
D|--3--3--3--3-----0--0--0--0-----2--2--2--2-----------------
A|--3--3--3--3--------------------0--0--0--0-----------------
E|--1--1--1--1-----------------------------------------------

3) 


E|--0--0--0--0-----0--0--0--0-----0--0--0--0-----2--2--2--2--
B|--2--2--2--2-----1--1--1--1-----2--2--2--2-----3--3--3--3--
G|--2--2--2--2-----0--0--0--0-----2--2--2--2-----2--2--2--2--
D|--2--2--2--2-----2--2--2--2-----2--2--2--2-----0--0--0--0--
A|--0--0--0--0-----3--3--3--3-----0--0--0--0-----------------
E|-----------------------------------------------------------


tabs and chords, guitar tabs, music transcription, music technology, deep learning, music information retrieval, transcribe into tabs & chords, chordify, music renditions, songsterr, reverbnation, tabulature, bollywood chords, ultimate guitar, yousician, guitar lessons, acoustic guitar, electric guitar, guitar tuner, 911 tabs