Guitar Tabs for Chet Atkins Autumn Leaves

(/) Slide Up  (\) Slide Down  (h) Hammer On  (p) Pull Off  (b) Bend (r) Release (v) Vibrato (x) Muted

Tabs for Song : 
BPM : 200

Song lyrics here 
E|--------------------------1--------1--------1--------1--------1-----1-----------1-----------1--------
B|-----1-----1-----1--------3--------3--------3--------3--------3--------0-----------0-----------0-----
G|-----2-----2-----2-----2--------2--------2--------2--------0--------------0-----------0-----------0--
D|--------------------3--------2--------0--------------------------------------------------------------
A|--0-----2-----3--------------------------------3--------2--------------------0-----------2-----------
E|-----------------------------------------------------------------3-----------------------------------

Song lyrics here 
E|-----3-----------3-----------3--------------------------------------------------------------------
B|--------1-----------1-----------1--------3-----------1-----------1-----------1-----------1--------
G|-----------0-----------0-----------0--------0-----------2-----------2-----------2-----------2-----
D|--2-----------0--------------------------------0--3--------3-----------3-----------3-----------3--
A|--------------------------3-----------2-----------------------------------------------0-----------
E|--------------------------------------------------------------1-----------3-----------------------

E|-----1-----------1-----------1-----------1-----------0-----------0-----------0-----------0--------
B|--------0-----------0-----------0-----------0-----------3-----------3-----------3-----------3-----
G|-----------2-----------2-----------2-----------2-----------1-----------1-----------1-----------1--
D|--0-----------------------0-----------------------------------------------0-----------------------
A|--------------3-----------------------3-----------2-----------------------------------3-----------
E|--------------------------------------------------------------0-----------------------------------

E|-----5-----------5-----------5-----------5--------------------0-----------------0-----------------0--------
B|--------0-----------0-----------0-----------0--------------1-----1-----------1-----1-----------1-----1-----
G|-----------5-----------5-----------5-----------5--------2-----------2-----2-----------2-----2-----------2--
D|--------------2-----------2-----------2--------------------------------------------------------------------
A|--0-----------------------------------------------0--0-----------------2-----------------3-----------------
E|-----------------------------------------------------------------------------------------------------------

E|-----------1-----------------1-----------------1-----------------1-----------------1-----------------5-----------------3-----------------1--------
B|--------3-----3-----------3-----3-----------3-----3-----------3-----3-----------0-----0-----------0-----0-----------0-----0-----------0-----0-----
G|-----2-----------2-----2-----------2-----2-----------2-----2-----------2-----0-----------0-----0-----------0-----0-----------0-----0-----------0--
D|--3-----------------2-----------------0-----------------------------------------------------7-----------------5-----------------------------------
A|--------------------------------------------------------3-----------------2-----------------------------------------------------------------------
E|--------------------------------------------------------------------------------------------------------------------------------3-----------------

E|-----------3-----------------1-----------------1--------------------------
B|--------1-----1-----------1-----1-----------0-----0--------------3--------
G|-----0-----------0-----0-----------0-----0-----------0--------0-----0-----
D|--2-----------------0--------------------------------------0-----------0--
A|--------------------------------------3-----------------2-----------------
E|--------------------------------------------------------------------------

E|-----------------------------------------------------------------------------------1-----------------1-----------------1-----------------1--------
B|-----------1-----------------1-----------------1-----------------1--------------0-----0-----------0-----0-----------0-----0-----------0-----0-----
G|--------2-----2-----------2-----2-----------2-----2-----------2-----2--------2-----------2-----2-----------2-----2-----------2-----2-----------2--
D|-----3-----------3-----3-----------3-----3-----------3-----3-----------3--0-----------------------------------0-----------------------------------
A|--0-----------------------------------------------------0-----------------------------------3-----------------------------------3-----------------
E|--------------------1-----------------3-----------------------------------------------------------------------------------------------------------

E|-----------0-----------------0-----------------0-----------------0--------
B|--------3-----3-----------3-----3-----------3-----3-----------3-----3-----
G|-----1-----------1-----1-----------1-----1-----------1-----1-----------1--
D|--------------------------------------0-----------------------------------
A|--2-----------------------------------------------------3-----------------
E|--------------------0-----------------------------------------------------

E|-----------0-----------------0-----------------0-----------------0-----------0--
B|--------1-----1-----------1-----1-----------1-----1-----------1-----1--------1--
G|-----2-----------2-----2-----------2-----2-----------2-----2-----------2-----2--
D|---------------------0\2--------------0--------------------------------------2--
A|--0-----------------------------------------------------2-----------------0--0--
E|--------------------------------------------------------------------------------

E|-----------0--------------------0--------------0-----0-----0-----------1--------------------------------------------3--5--7--5--3--1--0--------------------0--0--
B|-----------0--------------------1--------------1-----1-----1-----------0-----------------------------------3--5--6--------------------1--3--5--3--1--------1--1--
G|-----------1--------------------2--------------2-----2-----2-----------0--------------------------2--4--5-----------------------------0--4--5--4--2-----0--------
D|--------------------------------2-----------------------------------0--------------------2--3--5-----------------------------------------------------3--2--------
A|-----0--2--------2--3--2--0--2--0---2p0--2--3-----------3-----2--3--------------2--3--5-----------------------------------------------3-----------------3--------
E|--4-----------0-----------------------------------0-----------------------3--5-----------------------------------------------------------------------------------

E|-----------0--------0--------------0--------0--------------0--------0--------------0--------0-----------------------
B|-----0--------6--------0-----0--------6--------0-----0--------6--------0-----0--------6--------0--3-----1--0--1-----
G|--------7-----------------------7-----------------------5-----------------------5--------------------2-----1--------
D|-----------------6-----------------------6-----------------------7-----------------------7-----------1-----0-----2--
A|--------------------------------------------------0-----------------------0-----------------------2--------2--------
E|--0-----------------------0--------------------------------------------------------------------------------0--------

E|--------------1-----1--------------------3-----0--------------3-----1-----0--------------------
B|--------0--1-----------------------0--------------------------0-----------0-----3--------------
G|--2--2-----------(2)------(2)---(2)---------(2)------3--------------2-----------2-----(2)---(2)
D|--2--------------(3)------(3)---(3)---------(3)---(2)---(2)------(3)---------(3)------(3)---(3)
A|--0--------------------------------------------3-----------------------------------2-----------
E|--------------3--------3-----3--------3--------------3-----1-----------1-----------------1-----

E|-----1-----0--------------------------------------------------1--------1--------0--------0--------0--------
B|-----1-----0-----3-----3---1p(0)1-----------------0-----1--------1-----1-----------------0-----------3-----
G|--------(1)---------(1)------(2)------(2)---2--(2)---------(2)------(3)------(3)---2--(2)------(2)------(2)
D|--------(0)---------(0)------(2)------(2)------(2)---------(2)------(4)------(4)------(3)------(3)------(3)
A|-----------------------0-----------------0-----------------------------------------------------------------
E|--0-----------0--------------------0-----------------0--------4-----------4-----3-----------3-----2--------

E|--0-----------(0)---------------------------------------------------------------------------------------------
B|--1---------------1\3--1-----3-----------------3-----3-----1-----1--------------------------------0-----1-----
G|--------(2)---(2)---------(2)------(2)---(2)------(1)1--------(1)---2-----2-----(2)---(2)1--2-----1--------(1)
D|--------(3)---(3)---------(3)------(3)---(3)------(0)---------(0)------(2)------(2)---(2)------(2)---------(0)
A|--------------------------------2--------------------------------0-----------------0--------------------------
E|-----2-----1--------1-----------------1-----0-----------0--------------------0-----------0-----------0--------

E|--------------------------------------------0--------------------0--------------0--------
B|--3-----------3-----1-----0-----1-----3---------------------0/1--1--------(6)------6-----
G|--------(1)------(1)---------(1)2--------(2)------(2)-------0/2--------------0-----0-----
D|--------(0)------(0)---------(0)---------(2)------(2)---(2)---------(2)---(7)---------(7)
A|-----2-----------------2-----------0-----------------0-----------------5-----------------
E|-----------0-----------------------------------0--------------0-----------------5--------

E|--3-----------------1--------0-----------(0)------0--------------0-----7--------7--------8--
B|-----3-----6-----------1-----1---------------1/3-----------(6)------------5-----5-----------
G|--------(4)------(4)------(0)------(0)---(0)---------------(7)------(7)------(7)------(7)---
D|--------(3)------(3)------(2)------(2)---(2)---------(2)---(6)------(6)------(6)------(6)---
A|--------------------3-----------------3-----------------------------------------------------
E|--3-----------3-----------------3--------------3--------0-----7--------0-----------0--------

E|-----(7)5--------------------------------------0--------------------------------------
B|-----------5-----------------------5-----3-----3-----3-----0-----------1-----0--------
G|-----------------7-----5-----7-----5--(5)---(2)---------(2)1-----1-----1-----------2--
D|-----(7)------(7)---------(7)---------(7)---(3)---------(3)---------(0)---------(0)---
A|--0-----------------0--------------------2--------2-----------------------------------
E|--------0-----------------------0-----------------------------0-----------0-----------

E|-----------------0-----5-----8-----7-----5--------------------------7-----6-----7-----0-----------------
B|-----0-----1-----------5-----------------5-----6--------6-----------------3--------------1--------------
G|--------(2)---------(2)---------(5)---------(5)---0-----0--------------(4)---------(4)---------3-----(3)
D|--------(2)---------(2)---------(7)---------(7)------(7)------(7)------(3)---------(3)---------------(2)
A|--0-----------------------0--------------------5--------------------------------------3-----(2)---------
E|--------------0-----------------------0--------------------5-----3-----------3--------------------3-----

E|-----5--4--5--------------------4-----1-----0--------------------------------8-----7-----5-----1--------
B|--------------3--------3--------------------0-----3-----3---1\(0)1-----------5-----5-----5--------1-----
G|-----------------2-----------------------(1)------1--(1)------(2)---------------(5)---------(5)------(3)
D|--------------------(3)------(3)---------(0)---------(0)------(2)------(2)------(7)---------(7)------(4)
A|--------------2-----------------------------------------0-----------------0-----------------------------
E|--1-----------------------1--------0-----------0--------------------0-----------------0--------4--------

E|--1-----------------5-----3-----0--------------3-----1-----0--------
B|--1-----------4-----------------1--------------0-----------------3--
G|--------(3)------(4)---------(4)------3--------------2--------------
D|--------(4)------(3)---------(3)---(2)---(2)------(3)---------(3)---
A|--------------------------------3-----------------------------------
E|-----4-----3-----------3--------------3-----1-----------1-----------

E|--------------------------------------------------------------(8)---8-----8--------7-----------(7)---7-----
B|-----------------0-----3-----1------0/-1\0-----------------------------------5-----------------------------
G|-----(2)---(2)------(1)1--------(1)---------2-----2-----(0)---(5)------(5)------(7)------(7)---(7)------(7)
D|-----(3)---(3)------(0)---------(0)------------(2)------(2)---(7)------(7)------(6)------(6)---(6)------(6)
A|--2---------------------------------0/---------------------0-----------------------------------------------
E|--------1-----0-----------0--------------------------0-----------0--------0-----------0-----0-----0--------

E|--7--(5)------------------------------------(0)------0-----3-----------------1--------0--------
B|--------5--------------------------5-----6-----6--------------3-----6-----------1--------------
G|-----(5)---8-----7-----5-----7--------(5)------0-----------------(4)------(4)------(0)------(0)
D|-----(7)------(7)---------(7)---------(7)---(7)---------(7)------(3)------(3)------(2)------(2)
A|--0-----------------0--------------------5-----------------------------------3-----------------
E|--------0-----------------------0-----------------5--------3-----------3-----------------3-----

E|-----(0)------0--------------0-----7--------7-----------------0-----5--------5-----------------------------
B|---------1/3--1--------(6)------------5-----------------(6)------------5-----5-----5-----3--------1-----0--
G|-----(0)---------(0)---(7)------(7)------(7)------(7)---(5)------(5)------(5)---------(5)---(2)------(2)1--
D|-----(2)---------(2)---(6)------(6)------(6)------(6)---(7)------(7)------(7)---------(7)---(3)------(3)---
A|--3--------------------------------------------------0--------------0--------------------2-----------------
E|-----------3--------0-----7--------0-----------0-----------0--------------------0--------------1-----------

E|--------------------------------------0-----5--------------------10----8-----7--------------10----8--------7-----------
B|--------1-----0-----------0-----1--------------5-----------5--------------------------------7--------------------------
G|-----(1)---------(1)2--------(2)---------------------7--------(5)---(8)---(8)---(7)---(7)------(8)------(8)---(7)---(7)
D|-----(0)---------(0)---------(2)---------(2)------(7)---------(7)---(7)---(7)---(6)---(6)------(7)------(7)---(6)---(6)
A|-----------------------0--------------------0--------------------------------------------------------------------------
E|--0--------0-----------------------0--------------------0--------7-----7-----0-----0-----7-----------7-----0-----0-----

E|-----10----8--------7-----8-----5---5\0---8\-5\0------5\0-----------------------------------------------------------------
B|--------------------------5--5--5-----------------8---------8\-5\0------5\0---8\-5\0------5\0-----------------------------
G|--------(8)------(8)---7--7-----5-----------------------------------7-----------------7---------7\-5\0------5\0-----------
D|--------(7)------(7)---6--6-----7-----------------------------------------------------------------------7---------7\-5\0--
A|--------------------------------0-----------------------------------------------------------------------------------------
E|--7-----------7-----0-----------------------------------------------------------------------------------------------------

E|-----------------0-----------------5------7\5---------------7\5---------------7\5--------------------
B|-----------------3--------------5------------------7\5---------------7\5---------------7\5-----------
G|-----------------5-----------5--------(5)---------------(5)---------------(5)---------------7--5-----
D|------5\0--------6--------7--------------------(5)---------------(5)---------------(5)------------7--
A|--7--------7-----------7-----------------------------------------------------------------------------
E|--------------0-----5--------------------------------------------------------------------------------

Use manual mode to free up cursor. Paste any tab in acousterr tab maker and we'll play it !!!




tabs and chords, guitar tabs, music transcription, music technology, deep learning, music information retrieval, transcribe into tabs & chords, chordify, music renditions, songsterr, reverbnation, tabulature, bollywood chords, ultimate guitar, yousician, guitar lessons, acoustic guitar, electric guitar, guitar tuner, 911 tabs