Guitar Tabs for Autumn Leaves

(/) Slide Up  (\) Slide Down  (h) Hammer On  (p) Pull Off  (b) Bend (r) Release (v) Vibrato (x) Muted

Tabs for Song : 
BPM : 200

Song lyrics here 

E|--------------------------------------------------------------------------------------------------
B|--------------------------------------------------------------------------------5--5--7-----8-----
G|--------------------------------------------------------------------------------------------------
D|--------------------------------------------------------------------------------2--2--4-----5-----
A|--------------------------------------------------------------------------------------------------
E|--------------------------------------------------------------------------------------------------

E|--8-----------7-----------5-----------------------7-----------5-----------7-----------------------
B|--5-----------5-----------7-----3--3--5-----7-----5-----------5-----------5-----------3-----5-----
G|--5-----------5-----------5-----------------------7-----------7-----------5-----5--5--------------
D|--------------------------0-----0--0--2-----4-----5-----------5-----------5-----------0-----2-----
A|--0-----------------------------------------------------------------------------3--3--------------
E|--------------------------------------------------------------------------------------------------

E|--5-----------------------5-----------------------3-----------2-----------0-----------------------
B|--5-----------5-----------4-----------------------0-----------0-----------0-----5--5--7-----8-----
G|--5-----------5-----------4-----4--4--6-----8-----0-----------0-----------0-----------------------
D|--4-----------4-----------4-----------------------2-----------------------------2--2--4-----5-----
A|--------------------------------2--2--4-----6-----------------2-----------------------------------
E|--------------------------------------------------------------------------0-----------------------

E|-----------------------------------------------------------------------------0--------------------
B|-----1-----------------------1-----------------------------------------------0--------------------
G|-----0-----------------------2-----------------------4--------------------------------------------
D|--------------------------0--------------------------4--------------0-----------------------------
A|--0-----2-----3-----4-----------3-----2-----0-----------0-----2-----------3-----2-----3-----------
E|--------------------------------------------------3-----------------------------------------3-----

E|--------------------------------------------------------------------------------------------------
B|--------------------------------------------------------------------------------5-----4-----5-----
G|-----2-----------------------2-----------------------0--------------------------------------------
D|-----2-----------------------1-----------------------0--------------1-----2-----2-----1-----2-----
A|--------------0-----3-----2-----0-----------------------------2-----------------------------------
E|--2-----3-----------------------------3-----2-----0-----3-----------------------------------------



E|--2--------2--------0-----------2-----0-----2-----3-----------------------------------------------
B|--------0-----------0-----4-----------------------0-----------------------------8-----7-----8-----
G|--------------------------4-----------------------0-----------------------------------------------
D|--------------1-----------4-----------------------2-----------------------------5-----4-----5-----
A|--2-----------------------------------------------------------2-----------------------------------
E|--------------------------------------------------------------------3-----0-----------------------

E|--5--------5--------------------------10-------8--7-----------------------------------5-----7-----
B|--------5-----------------------------------------7-----------------------------------------------
G|--------------------------------7-----------------0-----------------------------------------------
D|--------------------------0-----------------------------------0-----------------------------------
A|--0-----------7-----6-----------------------------------------------2-----------------------------
E|--------------------------------------------------------------------------3-----------------------

E|--8--8--------5--5--------------------8-----------7-----------------------0-----------2-----3-----
B|--7--7--------5--5--------7--7--------7-----------8-----------------8-----0-----------------------
G|--9--9--------5--5--------5--5--------------------7-----------------7-----0-----------------------
D|--------------------------0-----------------------------------------9-----------------------------
A|--0-----------0-----------------------------------------------------------------------------------
E|--------------------------------------------------0-----------------------0-----------------------

E|--5-----------------3-----2-----------------------0-----------------------------------------------
B|--5-----------------------0-----------------------0-----------------------------5--5--7-----8-----
G|--5-----------------------2-----------0-----------0-----------------------------------------------
D|--4-----------------------1-----------------1-----2-----------------------------2--2--4-----5-----
A|--------------------------------2-----------------------2-----------------------------------------
E|--------------------------------------------------------------3-----2-----0-----------------------

E|-----------------------------------------------------------------------------0--------------------
B|-----1-----------------------1-----------------------------------------------0--------------------
G|-----0-----------------------2-----------------------4--------------------------------------------
D|--------------------------0--------------------------4--------------0-----------------------------
A|--0-----2-----3-----4-----------3-----2-----0-----------0-----2-----------3-----2-----3-----------
E|--------------------------------------------------3-----------------------------------------3-----


E|--------------------------------------------------------------------------------------3-----------
B|--------------------------------------------------------------------------------------4-----------
G|-----2-----------------------2-----------------------0--------------------------------4-----------
D|-----2-----------------------1-----------------------0--------------1-----2-----------2-----------
A|--------------0-----3-----2-----0-----------------------------2-----------------------------------
E|--2-----3-----------------------------3-----2-----0-----3-----------------------------0-----------







Song lyrics here 
E|--
B|--
G|--
D|--
A|--
E|--

Use manual mode to free up cursor. Paste any tab in acousterr tab maker and we'll play it !!!
tabs and chords, guitar tabs, music transcription, music technology, deep learning, music information retrieval, transcribe into tabs & chords, chordify, music renditions, songsterr, reverbnation, tabulature, bollywood chords, ultimate guitar, yousician, guitar lessons, acoustic guitar, electric guitar, guitar tuner, 911 tabs