Guitar Tabs for Channa Mereya

(/) Slide Up  (\) Slide Down  (h) Hammer On  (p) Pull Off  (b) Bend (r) Release (v) Vibrato (x) Muted

Tabs for Song : 
acha chalta ho duao me yaad rakhna 
E|--------------------------------------------------
B|--------5-----5--5-----5--------------------------
G|--5--7--------------------7--5--4--5--------------
D|--------------------------------------7--7--7-----
A|--------------------------------------------------
E|--------------------------------------------------
mere jekharo ka juban pe suad rakhna
E|-----------------------------------------------
B|-----------------------------------------------
G|-----4--5--5--5--5-----5--4--------------------
D|--7--------------------------7--6--7-----7--7--
A|-----------------------------------------------
E|-----------------------------------------------
dil ke sandoko me mere ache kaam rakhna 
E|-----------------------------------------------
B|--------5--5--5--7-----5-----------------------
G|--5--7--------------------7--5--4--5-----------
D|--------------------------------------7--7-----
A|-----------------------------------------------
E|-----------------------------------------------

chethi taro par bhi par tu salaam rakhna

E|-----------------------------------------------------
B|-----------------------------------------------------
G|--------4--5--5--5--7-----5--4-----------------------
D|-----7--------------------------7--6--7-----7--7-----
A|-----------------------------------------------------
E|-----------------------------------------------------

andhera teraa....mene le liya

Song lyrics here 
E|-----------------------------------------
B|--------------------------------6--6--5--
G|--------5--7--5--7--------5--7-----------
D|--5--7--------------7--------------------
A|-----------------------------------------
E|-----------------------------------------

Use manual mode to free up cursor. Paste any tab in acousterr tab maker and we'll play it !!!
tabs and chords, guitar tabs, music transcription, music technology, deep learning, music information retrieval, transcribe into tabs & chords, chordify, music renditions, songsterr, reverbnation, tabulature, bollywood chords, ultimate guitar, yousician, guitar lessons, acoustic guitar, electric guitar, guitar tuner, 911 tabs