Guitar Tabs for Channa Mereya

Tabs for Song : Channa Mereya

Acha chalta hoon,Duaaon mein yaad rakhna

E|--------0--0--0--0--------------------------
B|--1--3--------------3--1--0--1--------------
G|--------------------------------2--2--2-----
D|--------------------------------------------
A|--------------------------------------------
E|--------------------------------------------

Mere zikr ka zubaan pe swaad rakhna 

E|-----------------------------------------------
B|-----0--1--1--1--1--1--0-----------------------
G|--2-----------------------2--0--2--0--0--0-----
D|-----------------------------------------------
A|-----------------------------------------------
E|-----------------------------------------------

Dil ke sandookon mein,Mere ache kaam rakhna

E|--------0--0--0--0--3--0--------------------------
B|--1--3--------------------3--1--0--1--------------
G|--------------------------------------2--2--2-----
D|--------------------------------------------------
A|--------------------------------------------------
E|--------------------------------------------------

Chitthi taaron mein bhi,Mera tu salaam rakhna

E|-----------------------------------------------
B|-----0--1--1--1--1--1--0-----------------------
G|--2-----------------------2--0--2--0--0--0-----
D|-----------------------------------------------
A|-----------------------------------------------
E|-----------------------------------------------

andhera tera mene le liya

E|--------------------------1--1--1--3-----
B|--------1--3--1--3-----1-----------------
G|--0--2--------------2--------------------
D|-----------------------------------------
A|-----------------------------------------
E|-----------------------------------------

Mera ujla sitaara tere naam kiya

E|--3--3--1--1--5--3--1--0-----------1--0-----------------
B|--------------------------3--3--3--------3--1--0--1-----
G|--------------------------------------------------------
D|--------------------------------------------------------
A|--------------------------------------------------------
E|--------------------------------------------------------

Channa mereya mereya

E|-----------------------------------------
B|--0--0--3--1--1--1--1-----0--3--1--1-----
G|-----------------------------------------
D|-----------------------------------------
A|-----------------------------------------
E|-----------------------------------------

Channa mereya mereya

E|--------------------------------
B|-----------------1--0-----------
G|--2--0--2--2--2--------2--2-----
D|--------------------------------
A|--------------------------------
E|--------------------------------

Channa mereya mereya baliya

E|-----------------------------------------
B|--------------------------0--------------
G|--------------------0--2-----2--0--0-----
D|--3--2--3--3--3--3-----------------------
A|-----------------------------------------
E|-----------------------------------------

o piya..

E|--------0--1--0-----------
B|--0--3-----------3--1-----
G|--------------------------
D|--------------------------
A|--------------------------
E|--------------------------
 
mehfil me teri hum naa rahe jo

E|--0-----------------0-----------------------
B|-----3--3--3--3--------3--1-----0--3--3-----
G|-----------------------------2--------------
D|--------------------------------------------
A|--------------------------------------------
E|--------------------------------------------

Gham toh nahi hai, gham toh nahi hai

E|-----------------------------------------------
B|-----1--0--------------0--1--0-----------------
G|--2--------2--2--0--------------2--2--0--0-----
D|-----------------------------------------------
A|-----------------------------------------------
E|-----------------------------------------------

Qisse humare nazdeekiyon ke

E|--0--------------0--------------0-----------
B|-----3--3--3--3-----3--1-----------3--3-----
G|--------------------------2-----------------
D|--------------------------------------------
A|--------------------------------------------
E|--------------------------------------------

Kam to nahi hai, kam to nahi hai

E|-----------------------------------------------
B|-----1--0--------------0--1--0-----------------
G|--2--------2--2--0--------------2--2--0--0-----
D|-----------------------------------------------
A|-----------------------------------------------
E|-----------------------------------------------

Kitni dafaa subah ko meri

E|-----------------------------1--1--1--3-----
B|--------1--3--1--3--------1-----------------
G|--0--2--------------2-----------------------
D|--------------------------------------------
A|--------------------------------------------
E|--------------------------------------------

Tere aangan mein baithe maine shaam kiya

E|--3--3--1--1--5--3--1--0-----------1--0-----------------
B|--------------------------3--3--3--------3--1--0--1-----
G|--------------------------------------------------------
D|--------------------------------------------------------
A|--------------------------------------------------------
E|--------------------------------------------------------

Channa mereya mereya

E|-----------------------------------------
B|--0--0--3--1--1--1--1-----0--3--1--1-----
G|-----------------------------------------
D|-----------------------------------------
A|-----------------------------------------
E|-----------------------------------------

Channa mereya mereya

E|--------------------------------
B|-----------------1--0-----------
G|--2--0--2--2--2-----------2--2--
D|--------------------------------
A|--------------------------------
E|--------------------------------

Channa mereya mereya baliya

E|-----------------------------------------
B|--------------------------0--------------
G|--------------------0--2-----2--0--0-----
D|--3--2--3--3--3--3-----------------------
A|-----------------------------------------
E|-----------------------------------------

o piya..

E|--------0--1--0-----------
B|--0--3-----------3--1-----
G|--------------------------
D|--------------------------
A|--------------------------
E|--------------------------
 
tabs and chords, guitar tabs, music contests, music covers, songsterr, reverbnation, renditions, tabulature, bollywood chords, ultimate guitar, yousician, guitar lessons, torrins, fender, gibson, acoustic guitar, electric guitar, youtube covers, gootar, guitar tuner, A-Z tabs, 911 tabs