Guitar Tabs for Chal Wahan Jate Hain

Tabs for Song : Chal wahan jate h

aasmaan ke pare jahaan hai kahin

E|-----------------------------------------------------
B|--------------------------------------1--------------
G|--3--2--3-----3--2--3-----0--2--3--3-----3--2--3-----
D|-----------------------------------------------------
A|-----------------------------------------------------
E|-----------------------------------------------------

jhooth sach ka wahan kayada hi nhi 

E|-------------------------------------------------------
B|--------------------------------------1----------------
G|--3--2--3-----3--2--3-----0--2--3--3-----3--2--3-------
D|-------------------------------------------------------
A|-------------------------------------------------------
E|-------------------------------------------------------

roshni mein wha ki alag noor hai

E|--------------------------1-----------------------------
B|-----1--3-----3--1--3--------4--3--3--1--------1--------
G|--3-----------------------------------------3-----------
D|--------------------------------------------------------
A|--------------------------------------------------------
E|--------------------------------------------------------
saaye jismon se aage jahaan jaate hain

E|--------------------------------------------------------
B|-----------------------1--3-----1-----------------------
G|--0--2--3-----3--2--3--------------3--2--0-----3--2-----
D|--------------------------------------------------------
A|--------------------------------------------------------
E|--------------------------------------------------------
chal wahan jate h

E|--------------------------
B|--------------------------
G|--3--2--0-----3--2--0-----
D|--------------------------
A|--------------------------
E|--------------------------
chal wahan jate Hai

E|--------1-----------------
B|--------------4--3--1-----
G|--2--3--------------------
D|--------------------------
A|--------------------------
E|--------------------------

pyaar krne chlo 


E|--------------------------
B|--------------------------
G|--3--2--0-----3--2--0-----
D|--------------------------
A|--------------------------
E|--------------------------

hum wahan jaate hai

E|-----------------------
B|-----------------------
G|--------5-----2--3--2--
D|--3--3-----------------
A|-----------------------
E|-----------------------

tabs and chords, guitar tabs, music contests, music covers, songsterr, reverbnation, renditions, tabulature, bollywood chords, ultimate guitar, yousician, guitar lessons, torrins, fender, gibson, acoustic guitar, electric guitar, youtube covers, gootar, guitar tuner, A-Z tabs, 911 tabs