Guitar Tabs for Chain Reaction

(/) Slide Up  (\) Slide Down  (h) Hammer On  (p) Pull Off  (b) Bend (r) Release (v) Vibrato (x) Muted

Tabs for Song : Chain Reaction

Verse/Pre-Chorus:
E|--------------------------------------------------------------------------------------
B|--------------------------------------------------------------------------------------
G|-----2-----------2-----------2-----------2-----------2--------------2-----2--4-----2--
D|--5--------5--5--------5--5--------5--5--------5--5--------5--x--5-----5--------5-----
A|--------------------------------------------------------------------------------------
E|--------------------------------------------------------------------------------------

Chorus:
E|--------------------------------------------------------------
B|--7--7--8--8--8--8--8--8--8--8--7--7--8--8--8--8--8--8--8--8--
G|--------------------------------------------------------------
D|--------------------------------------------------------------
A|--------------------------------------------------------------
E|--------------------------------------------------------------

Instrumental:
E|--------------------------------------------------
B|--12-12-10----12-12-10----12-12-10-13-12-10-12----
G|--12-12-12----12-12-12----12-12-12-12-12-12-12----
D|--------------------------------------------------
A|--------------------------------------------------
E|--------------------------------------------------

Bridge:
E|--10h12p10-------------------------------------------------------------
B|-----------12-10h12p10----10h12h10-------------------------------8-----
G|-----------------------12----------12p9-----9--------7-----9-----7-----
D|-----------------------------------------12----------------------------
A|-----------------------------------------------------------------------
E|-----------------------------------------------------------------------
tabs and chords, guitar tabs, music transcription, music technology, deep learning, music information retrieval, transcribe into tabs & chords, chordify, music renditions, songsterr, reverbnation, tabulature, bollywood chords, ultimate guitar, yousician, guitar lessons, acoustic guitar, electric guitar, guitar tuner, 911 tabs