Bass Tabs for Celly Campello - Estúpido Cupido

Celly Campello - Estúpido Cupido

Intro
G|-----------------------------
D|-----------------------------
A|--2--2--2--2--2--2--4--6--7--
E|-----------------------------

Verse
G|-----------6--------------6-----------------------------------
D|-----6--9-----9-----6--9-----9-----------4--------------4-----
A|--7--------------7-----------------4--7-----7-----4--7-----7--
E|--------------------------------5--------------5--------------

G|-----------6--------------6--------------------------------------
D|-----6--9-----9-----6--9-----9-----------6--------------4--------
A|--7--------------7-----------------6--9-----9-----4--7--------7--
E|--------------------------------7--------------5-----------------

Tension
G|-----------------------------------6--------------6-----
D|--7--5--4--------------------6--9-----9-----6--9-----9--
A|-----------7--5--4--------7--------------7--------------
E|--------------------7--5--------------------------------

G|--------------------------------------------------------
D|--7--5--4-----------------------9--9--7--7--6--6--------
A|-----------7--5--4--------9--9--------------------9--9--
E|--------------------7--5--------------------------------


tabs and chords, guitar tabs, music transcription, music technology, deep learning, music information retrieval, transcribe into tabs & chords, chordify, music renditions, songsterr, reverbnation, tabulature, bollywood chords, ultimate guitar, yousician, guitar lessons, acoustic guitar, electric guitar, guitar tuner, 911 tabs