Bass Tabs for Celly Campello - Banho De Lua

Celly Campello - Banho De Lua

Intro
G|-----------------------------
D|-----------------------------
A|--7--------7--------7-----7--
E|-----------------------------

G|-----------------------------
D|--------------------4--------
A|--------4--4--7--7-----7-----
E|--5--5--------------------5--

Verse
G|--------------------------------------------------
D|--------6--6--9--9--6--9--------6--6--9--9--6--9--  2x
A|--7--7--------------------7--7--------------------
E|--------------------------------------------------

G|--------------------------------------------------
D|--------------------------------------------------
A|--------4--4--7--7--4--7--------4--4--7--7--4--7--
E|--5--5--------------------5--5--------------------

G|--------------------------------------------------
D|--------6--6--9--9--6--9--------6--6--9--9--6--9--
A|--7--7--------------------7--7--------------------
E|--------------------------------------------------

G|--------------------------------------------------
D|--------------------------------------------------
A|--------6--6--9--9--6--9--------4--4--7--7--4--7--
E|--7--7--------------------5--5--------------------

G|--------------------------------------
D|--------6--6--9--9--6--9-----7--8--9--
A|--7--7--------------------7-----------
E|--------------------------------------

Tension
G|-----------------------------------------------------
D|-----6-----6-----6-----6-----6--------6--------------
A|--4-----6-----4-----6-----4-----6--4-----7--6--7--9--
E|-----------------------------------------------------


tabs and chords, guitar tabs, music transcription, music technology, deep learning, music information retrieval, transcribe into tabs & chords, chordify, music renditions, songsterr, reverbnation, tabulature, bollywood chords, ultimate guitar, yousician, guitar lessons, acoustic guitar, electric guitar, guitar tuner, 911 tabs