Guitar Tabs for Cavatina Guitar2

E|-----------0-----------------0-----------------0-----------------0-----------------------------------0--------
B|--------0-----0-----------0-----0-----------0-----0-----------0-----0--------------5--------------2-----2-----
G|-----1-----------1-----1-----------1-----1-----------1-----1-----------1--------6-----6--------2-----------2--
D|--------------------2-----------------2-----------------1--------------------7-----------7--------------------
A|--------------------------------------------------------------------------4-----------------------------------
E|--0-----------------------------------------------------------------------------------------2-----------------

E|-----------0-----------------2-----------------4-----------------------------------0-----------------2--------
B|--------2-----2-----------2-----2-----------4-----4--------------3--------------2-----2-----------2-----2-----
G|-----2-----------2-----2-----------2-----4-----------4--------4-----4--------1-----------1-----2-----------2--
D|--------------------------------------2--------------------6-----------6--------------------0-----------------
A|--2-----------------2-----------------------------------------------------0-----------------------------------
E|--------------------------------------------------------0-----------------------------------------------------

E|-----------2-----------------3-----------------0--------------2-----------0--------------------------0--4--5--
B|--------3-----3-----------5-----5-----------2-----2-----------------4-----------------------0-----0-----------
G|-----4-----------4-----4-----------4-----2-----------2--------2-----2-----2-----1--------1-----1--------------
D|-----------------------------------------------------------2-----4-----4-----4-----1--2-----------------------
A|--------------------3-----------------------------------2-----------------------------------------------------
E|--3-----------------------------------2-----------------------------------0-----------------------------------

E|-----------4-----------------4--------------------------------0-----------------0-----------------2--------
B|--------5-----5-----------4-----4-----------5--------------2-----2-----------2-----2-----------2-----2-----
G|-----4-----------4-----4-----------------6-----6--------2-----------2-----2-----------2-----2-----------2--
D|--------------------------------------7-----------7--------------------------------------------------------
A|--7-----------------6--------------4-----------------------------------2-----------------2-----------------
E|-----------------------------------------------------2-----------------------------------------------------

E|-----------------------------4-----------------4-----------------2-----------------2-----------------3--------
B|-----------0--------------3-----3-----------5-----5-----------2-----2-----------3-----3-----------5-----5-----
G|--------1-----1--------4-----------4-----6-----------6-----2-----------2-----4-----------4-----4-----------4--
D|-----1-----------1--------------------------------------0-----------------------------------------------------
A|--------------------------------------0-----------------------------------------------------3-----------------
E|--0-----------------0-----------------------------------------------------3-----------------------------------

E|-----------0--------------2-----------0--------------------------0-----------------0-----------------0--------
B|--------2-----2-----------------4-----------------------0-----0-----0-----------0-----0-----------0-----0-----
G|-----2-----------2--------2-----2-----2-----1--------1-----1-----------1-----1-----------1-----1-----------1--
D|-----------------------2-----4-----4-----4-----1--2-----------------------------------------------------------
A|--------------------2-----------------------------------------------------4-----------------------------------
E|--2-----------------------------------0-----------------------------------------------------2-----------------

E|-----------2-----------------4-----------------0-----------------0-----------------4--------------------------
B|--------4-----4-----------4-----4-----------2-----2-----------2-----2-----------4-----4--------------3--------
G|-----4-----------4-----4-----------4-----2-----------2-----2-----------2-----4-----------4--------4-----4-----
D|--------------------------------------------------------------------------2--------------------6-----------6--
A|--2-----------------2-----------------------------------2-----------------------------------------------------
E|--------------------------------------2-----------------------------------------------------0-----------------

E|-----------0-----------------2-----------------2-----------------------------------2-----------------0--------
B|--------2-----2-----------2-----2-----------2-----2--------------7--------------3-----3-----------0-----0-----
G|-----1-----------1-----2-----------2-----3-----------3--------8-----8--------4-----------4-----0-----------0--
D|--------------------0-----------------2--------------------9-----------9--0-----------------------------------
A|--0-----------------------------------------------------6-----------------------------------3-----------------
E|--------------------------------------------------------------------------------------------------------------

E|--------------------------------------------------------------------------------------------------------------
B|--5-----------------------------------------------------------------------------------------------------------
G|--5-----------------------------------------------------------------------------------------------------------
D|--4-----------------------------------------------------------------------------------------------------------
A|--2-----------------------------------------------------------------------------------------------------------
E|--------------------------------------------------------------------------------------------------------------

[Solo part]

E|-----------4-----------------4-----------------------------------0-----------------0-----------------2--------
B|--------5-----5-----------4-----4--------------5--------------2-----2-----------2-----2-----------2-----2-----
G|-----4-----------4-----4-----------4--------6-----6--------2-----------2-----2-----------2-----2-----------2--
D|-----------------------------------------7-----------7--------------------------------------------------------
A|--7-----------------6-----------------4-----------------------------------2-----------------2-----------------
E|--------------------------------------------------------2-----------------------------------------------------

E|-----------------------------4-----------------4-----------------2-----------------2-----------------3--------
B|-----------0--------------3-----3-----------5-----5-----------2-----2-----------3-----3-----------5-----5-----
G|--------1-----1--------4-----------4-----6-----------6-----2-----------2-----4-----------4-----4-----------4--
D|-----1-----------1--------------------------------------0-----------------------------------------------------
A|--------------------------------------0-----------------------------------------------------3-----------------
E|--0-----------------0-----------------------------------------------------3-----------------------------------

E|-----------0--------------2-----------0--------------------------0-----------------0-----------------0--------
B|--------2-----2-----------------4-----------------------0-----0-----0-----------0-----0-----------0-----0-----
G|-----2-----------2--------2-----2-----2-----1--------1-----1-----------1-----1-----------1-----1-----------1--
D|-----------------------2-----4-----4-----4-----1--2-----------------------------------------------------------
A|--------------------2-----------------------------------------------------4-----------------------------------
E|--2-----------------------------------0-----------------------------------------------------2-----------------

E|-----------2-----------------2-----------------0-----------------0--------------------------------------------
B|--------4-----4-----------2-----2-----------2-----2-----------2-----2--------------0-----------------0--------
G|-----3-----------3-----2-----------2-----2-----------2-----2-----------2--------1-----1-----------1-----1-----
D|-----------------------------------------------------------------------------1-----------1-----0-----------0--
A|--2-----------------2-----------------------------------2-----------------------------------------------------
E|--------------------------------------2-----------------------------------0-----------------0-----------------

E|-----------0-----------------2-----------------2-----------------------------------2-----------------0--------
B|--------2-----2-----------2-----2-----------2-----2--------------7--------------3-----3-----------0-----0-----
G|-----1-----------1-----2-----------2-----3-----------3--------8-----8--------4-----------4-----0-----------0--
D|--------------------0-----------------2--------------------9-----------9--0-----------------------------------
A|--0-----------------------------------------------------6-----------------------------------3-----------------
E|--------------------------------------------------------------------------------------------------------------

E|--------------
B|--5-----------
G|--5-----------
D|--4-----------
A|--2-----------
E|--------------

[Ending]
tabs and chords, guitar tabs, music contests, music covers, songsterr, reverbnation, renditions, tabulature, bollywood chords, ultimate guitar, yousician, guitar lessons, torrins, fender, gibson, acoustic guitar, electric guitar, youtube covers, gootar, guitar tuner, A-Z tabs, 911 tabs