Guitar Tabs for Carol Of The Bells - Pentatonix

(/) Slide Up  (\) Slide Down  (h) Hammer On  (p) Pull Off  (b) Bend (r) Release (v) Vibrato

Carol of the Bells arranged by clean_strat

**STANDARD TUNING**

BELOW TABS ARE NOT 100% ACCURATE AND SHOULD ONLY BE USED AS REFERENCE.  IT IS NOT ARRANGED IN TEMPO EITHER.

Strumming Chords (first phase)

E|--0--0--0--0---0/0--
B|--8--7--5--5---5/7--
G|--0--0--2--0---0/0--
D|--9--7--2--5---5/7--
A|--7--5--4--3---3/5--
E|--0-----------------

Strumming Chords (second phase)

E|--0--0--0--0---0/0--
B|--8--10-5--5---5/7--
G|--0--7--2--0---0/0--
D|--9--7--2--5---5/7--
A|--7--9--4--3---3/5--
E|--0-----------------

Solo (Part 1)
E|--------------------------------------------------------------------------------------------------------
B|--8--7--8-----8--7--8-----8--7--8-----8--7--8-----8--7--8-----8--7--8-----8--7---8p7------8p7-----------
G|-----------9-----------9-----------9-----------9-----------9-----------9--------------9--------9--7-----
D|-----------------------------------------------------------------------------------------------------9--
A|--------------------------------------------------------------------------------------------------------
E|--------------------------------------------------------------------------------------------------------

Solo (Part 2)
E|-----------------------------------------------------------------------10----10h12-10----10----------------
B|--12-10-12----12-10-12----12-10-12----12-10-12----12b13-12-10----10-12----12----------12----12p10----10----
G|-----------12----------12----------12----------12-------------12----------------------------------12----12-
D|-----------------------------------------------------------------------------------------------------------
A|-----------------------------------------------------------------------------------------------------------
E|-----------------------------------------------------------------------------------------------------------

Juicy Solo (Part 3)
E|--------------------------------------------------------------------------------------------------------------------------
B|--10b11-10-8-----8-----------10b11-10-8-----8-----7-----7------8p7------8p7-----------------------------------------------
G|--------------9------9\7-----------------9-----9-----9-----9--------9--------9--7-----7---9p7-----7-----------------------
D|--------------------------9--------------------------------------------------------9-----------9-----9---8p7-----7--------
A|--------------------------------------------------------------------------------------------------------------10----10-7--
E|--------------------------------------------------------------------------------------------------------------------------

Ending
E|------3\5--3------------------0h2--0-----0-----------------0-----------------------------------------------------------------------------------------------
B|------3\5--3-----------3--------------3-----3--0------3b4------3p0-----------------------------------------------------------------------------------------
G|--------------------2-----2------------------------------------------3/-2p0------2p0--------------------0--------------------------------------------------
D|-----------------0-----------------------------------------------------------2---------2p0------0h-2h4-----4--2--0------2p0--------------------------------
A|--------------------------------------------------------------------------------------------2-----------------------3---------3p-2p0-----------------------
E|--0------------------------------------------------------------------------------------------------------------------------------------3p0---3b4---3b4--0--

BUT MOST IMPORTANTLY!!!! MAKE SURE TO FEEL THE MUSIC TO THE POINT OF FALLING OFF YOUR CHAIR!!!

tabs and chords, guitar tabs, music contests, music covers, songsterr, reverbnation, renditions, tabulature, bollywood chords, ultimate guitar, yousician, guitar lessons, torrins, fender, gibson, acoustic guitar, electric guitar, youtube covers, gootar, guitar tuner, A-Z tabs, 911 tabs