Guitar Tabs for Careless Whisper - George Michael

(/) Slide Up  (\) Slide Down  (h) Hammer On  (p) Pull Off  (b) Bend (r) Release (v) Vibrato (x) Muted

Tabs for Song : Careless Whisper

Spanish Guitar
E|-----------------------------------------------------
B|-----------------------------------------10-12-13-10-
G|--5--4--5--2--5--4--5-----5--4--5--7--9--------------
D|-----------------------3-----------------------------
A|-----------------------------------------------------
E|-----------------------------------------------------
Intro
E|---3/5--0--3---3/5-----------------8--7--7-----------------------
B|---------------------5\3-----3--3-----------10-------------------
G|-----------------------------2--2---------------7/9--7--5---2/4--
D|--------------------------0--------------------------------------
A|---0-------------------------------8-----8-----------------------
E|------------------------------------------------0/---------------

E|---------------------------------------1h3--1--
B|--------0--1--3---3/5--------0--1--------------
G|-----2--------------------2--------2-----------
D|-----------------------0-----------------------
A|--0--------------------------------------------
E|-----------------------------------------------

E|--0--1--0--1--0--1--0--7--7---7h8--7--5-----
B|--1--1--1--1--1--1--1--8--8--------8--5-----
G|--------------------------------------------
D|--------------------------------------------
A|-----------------------------------------0--
E|--0--------------------0--------------------

Saxophone Intro x2
E|--7--5-----------7--5--------3--1-----------3--1--------
B|--5-----5--------5-----5-----1-----1--------1-----1-----
G|--5--------5--------------5--2--------2--------------2--
D|-----------------------------0-----------0--------------
A|--------------0-----------------------------------------
E|--0-----------------------------------------------------

E|--1--0-----------------------------------------
B|--1-----1--------------------------0--1---3/5--
G|-----------2-----------------0--2--------------
D|--------------3--------2--3--------------------
A|-----------------------------------------------
E|--1--------------1--1--0-----------------------


Verse
E|--------------------------------------------0--------1--------------0-----------------------------
B|--5---3h5--3--1---0h2-----3--3-----3--------1-----1-----3-----1--------------3--------1--------0--
G|--------------------------2--2-----2--2--2-----2-----------2-----2--------0--------0--------0-----
D|-----------------------0--------0--------------------------------------2--------2--------2--------
A|--0--------0--------------------------------------------------------------------------------------
E|--------------------------------------------1-----------------------0-----------------------------
Pre-chorus
E|------------------------------------------------------1h3--1--0--1--0--1--0--1--0--0--------------------------------
B|--------0-----3---3\5-----------------------0--1--------------1--1--1--1--1--1--1-----------3--------1--------0-----
G|-----2-----1-----------------------------2--------2--------------------------------------0--------0--------0-----2--
D|--------------------------------------0-----------------------------------------------2--------2--------2-----------
A|--0--------------------0--0-----0--0------------------0h------------------------------------------------------------
E|--------------------------------------------------------------1--------------------0--------------------------------
Chorus
E|-----------------------------------------------------------------------------------------------------------
B|-----1--1---1p0--0--0--0--------1-----1------1h3--1--0-----1---1p0--0--0--0--------0--0-----0--------------
G|-----2--2-----------------2--2-----2-----2--------------2--2-----------------2--2--0--0-----0--2---0h2--0--
D|--------------------------------0--------------------------------------------------------------------------
A|--0--------------------0-----------------------------------------------------------------------------------
E|-----------------------------------------------------------1--------------1--------0-----0--------------0--

E|-----8---8p7--7--7--7--------8-----8------8h10-8--7--------8---8p7--7--7--7--------7--7-----7-----7---7h8--7--
B|-----------------------10-10----10----10-------------10----8-----------------10-10-8--8-----8--10-------------
G|--------------------------------------------------------------------------------------------------------------
D|-----------------------------0--------------------------------------------------------------------------------
A|--0-----------------0-----------------------------------8-----------------8-----------------------------------
E|-----------------------------------------------------------------------------------0-----0--------------------
Saxophone Intro again


tabs and chords, guitar tabs, music transcription, music technology, deep learning, music information retrieval, transcribe into tabs & chords, chordify, music renditions, songsterr, reverbnation, tabulature, bollywood chords, ultimate guitar, yousician, guitar lessons, acoustic guitar, electric guitar, guitar tuner, 911 tabs