Guitar Tabs for Careless Whisper

(/) Slide Up  (\) Slide Down  (h) Hammer On  (p) Pull Off  (b) Bend (r) Release (v) Vibrato (x) Muted

Tabs for Song : 
BPM : 150

Song lyrics here 
E|---------------------------------------------------------3/5--0--3---3/5-----------------------
B|-----------------------------------------10-12-13-10-----------------------5\3-----------3--3--
G|--5--4--5--2--5--4--5-----5--4--5--7--9--------------------------------------------------2--2--
D|-----------------------3--------------------------------------------------------0-----0--------
A|---------------------------------------------------------0/------------------------------------
E|-----------------------------------------------------------------------------------------------

E|--8-----7--7---------------------------------------------------------------------1h3--1-----
B|-----------------10-------------------------------0--1--3---3/5--------0--1-----------------
G|---------------------7/9-----7-----5---2/4-----2--------------------2--------2--------------
D|-----------------------------------------------------------------0--------------------------
A|--8--------8--------------------------------0-----------------------------------------------
E|---------------------0/---------------------------------------------------------------------

E|--0-----1-----0-----1-----0-----1-----0-----7-----7---7h8-----7--5-----
B|--1-----1-----1-----1-----1-----1-----1-----8-----8-----------8--5-----
G|-----------------------------------------------------------------------
D|-----------------------------------------------------------------------
A|--------------------------------------------------------------------0--
E|--1-----------------------------------------0--------------------------

E|-----------7--7--5-----------------7--5-----------------3--1--------------3--1--------------
B|--------5-----5-----5--------------5-----5--------------1-----1-----------1-----1-----------
G|-----5--------------------5--------------------5--------2-----------2-----------------2-----
D|-----------------------------------------------------0-----------------0--------------------
A|--0-----------------------------0-----------------------------------------------------------
E|--------------------------------------------------------------------------------------------

E|--1-----0-----------------------------------------------------
B|--1--------1--------------------------------------0--1---3/5--
G|-----------------2--------------------------0--2--------------
D|--------------------3-----------------2--3--------------------
A|--------------------------------------------------------------
E|--1--------------------1--1-----1-----0-----------------------

Song lyrics here 
E|-----------7--7--5-----------------7--5-----------------3--1--------------3--1-----------
B|--------5-----5-----5--------------5-----5--------------1-----1-----------1-----1--------
G|-----5--------------------5--------------------5--------2-----------2-----------------2--
D|-----------------------------------------------------0-----------------0-----------------
A|--0-----------------------------0--------------------------------------------------------
E|-----------------------------------------------------------------------------------------



E|--1--0-----------------------------------------------------
B|--1-----1--------------------------------------0--1---3/5--
G|--------------2--------------------------0--2--------------
D|-----------------3-----------------2--3--------------------
A|-----------------------------------------------------------
E|--1--------------------1--1-----1--0-----------------------

E|--------------------------------------------------------0--1-----------------0-----------------------------
B|--5---3h5-----3--1-----------------3--3-----3-----------1--1--3--------1--------------3--------1--------0--
G|------------------------0h2--------2--2-----2-----2--2-----2--------2-----2--------2--------2--------2-----
D|--------------------------------0--------0--------------------------------------2--------2--------2--------
A|--0-----------0--------------------------------------------------------------------------------------------
E|--------------------------------------------------------1--------------------0-----------------------------

E|------------------------------------------------------1h3--1-----0--1--0--1--0--1--0-----0-----------------------------------
B|--------0--1--3---3/5-----------------------0--1-----------------1--1--1--1--1--1--1--------------3--------1--------0--------
G|-----2-----------------------------------2--------2--------------------------------------------0--------0--------0--------2--
D|--------------------------------------0---------------0h------------------------------------2--------2--------2--------2-----
A|--0--------------------0--0-----0--------------------------------------------------------------------------------------------
E|-----------------------------------------------------------------0-----------------------0-----------------------------------

E|-----------------------------------------------------------------------------------------
B|-----1--1---1p0--0--0--0--------1-----1------1h3--1--0--------1---1p0--0--0--0--0--------
G|-----2--2-----------------2--2-----2-----2--------------2-----2--------------------2--2--
D|--------------------------------0--------------------------------------------------------
A|--0--------------------0-----------------------------------------------------------------
E|--------------------------------------------------------------1-----------------1--------

E|--------------------------
B|--0--0-----0--------------
G|--0--0-----0--2---0h2--0--
D|--------------------------
A|--------------------------
E|--0-----0--------------0--

E|-----8---8p7--7--7--7--------8-----8------8h10-8--7--------8---8p7--7--7--7--------
B|-----------------------10-10----10----10-------------10----8-----------------10-10-
G|-----------------------------------------------------------------------------------
D|-----------------------------0-----------------------------------------------------
A|--0-----------------0-----------------------------------8-----------------8--------
E|-----------------------------------------------------------------------------------

E|--7--7-----7-----7---7h8--7--
B|--8--8-----8--10-------------
G|-----------------------------
D|-----------------------------
A|-----------------------------
E|--0-----0--------------------

E|--
B|--
G|--
D|--
A|--
E|--

E|--
B|--
G|--
D|--
A|--
E|--

E|--
B|--
G|--
D|--
A|--
E|--

Use manual mode to free up cursor. Paste any tab in acousterr tab maker and we'll play it !!!
tabs and chords, guitar tabs, music transcription, music technology, deep learning, music information retrieval, transcribe into tabs & chords, chordify, music renditions, songsterr, reverbnation, tabulature, bollywood chords, ultimate guitar, yousician, guitar lessons, acoustic guitar, electric guitar, guitar tuner, 911 tabs