Guitar Tabs for Careless Whisper

(/) Slide Up  (\) Slide Down  (h) Hammer On  (p) Pull Off  (b) Bend (r) Release (v) Vibrato (x) Muted

Tabs for Song : 

Song lyrics here
E|--------7--5--------7--5-----------3--1--------3--1-----------1--0-----------------------------------0--0-----------------1--
B|---5/10-5-----5-----------5--------1-----1-----------1--------1-----1-----------------------0--1--3-----1--3--1--0--------1--
G|--------5--------5-----------5-----2--------2-----------2-----2--------2--------------0--2--------------2-----------2-----2--
D|-----------------------------------0--------------0-----------------------3-----2--3-----------------------------------0--0--
A|--------0--------------0--------------------------------------------------------2-----------------------0--------------------
E|--------------------------------------------------------------1--------------1--0--------------------------------------------

E|-----------0--1--------------0-----------------------------3--1--0--1--0--1--0--1--0-----0--------------
B|-----1-----1-----3-----1-----0--3--1--0-----------0--1-----------1--------------------1--0--3--1--0-----
G|--2-----2--2--------2-----2--0-----------2-----2--------2--------2-----------------------0-----------2--
D|-----------3-----------------------------------------------------3--------------------------------------
A|--------------------------------------------0-----------------------------------------------------------
E|-----------------------------0-----------------------------------------------------------0--------------

E|-----8--8--8---8p7--7--7--7--5--5--8--5--8--5---8/10-8--7--5-----8--8--8--7--7--7--------
B|-----5-----------------------------6--------------------6--------------------------10-10-
G|-----5-----------------------------7--------------------7--------9-----------------------
D|-----------------------------------0--------------------0--------------------------------
A|--0-----------------------------------------------------------8--------------------------
E|------------------------------------------------0/---------------------------------------

E|--7--8--7--5--5--3--10-8-----12-10-8-----12-10-------8--8--8--10-10-8--8--
B|--0-----------------------10----------10-10----13-10----------------------
G|--0--------------------------------------10----------9--------------------
D|-----------------------------------------0--------------------------------
A|-----------------------------------------------------8--------------------
E|--0-----------------------------------------------------------------------

E|--7--7--7--7--7--7--7--8--10-0--1--15-14-12-10-10/12-12-12-8--10p8--5-----5--3--3--1--
B|--0--------------------------1--3--------------------0--------------5-----5--5--5--1--
G|--0--------------------------2--2--------------------0--------------5-----5--5--5--2--
D|-----------------------------2--0--------------------------------------------------0--
A|-----------------------------0--------------------------------------0--0--------------
E|--0--------------------------------13----------------0--0-----------------------------

E|--0--0-----5--5--5--5---5h7--5---5h7--5-----5--5--5--5---5h7--5---5h7--5-----5--5--5--5---5h7--5---5h7--5--
B|--1--0-----5--5--5--------------------------6--6--6--------------------------5--5--5-----------------------
G|--2--0-----5--5--5--------------------------7--7--7--------------------------5--5--5-----------------------
D|--3--2-----------------------------------0-----------------------------------------------------------------
A|-----2--0-----------------------------------------------------------------8--------------------------------
E|-----0-----------------------------------------------------------------------------------------------------

E|-----7--7--7--7---7h8--7---7h8--7--g
B|-----0--0--0-----------------------
G|-----0--0--0-----------------------
D|-----------------------------------
A|-----------------------------------
E|--0--------------------------------

Song lyrics here
E|--
B|--
G|--
D|--
A|--
E|--

Paste any tab in acousterr's tab maker and we'll play it !!!
Now supports capo and sound effects for vibrato/pull-off/hammer/bends/mutes etc !!! Checkout help section
tabs and chords, guitar tabs, music contests, music covers, songsterr, reverbnation, renditions, tabulature, bollywood chords, ultimate guitar, yousician, guitar lessons, torrins, fender, gibson, acoustic guitar, electric guitar, youtube covers, gootar, guitar tuner, A-Z tabs, 911 tabs