Guitar Tabs for Can't Help Falling In Love

(/) Slide Up  (\) Slide Down  (h) Hammer On  (p) Pull Off  (b) Bend (r) Release (v) Vibrato (x) Muted

Tabs for Song : 
BPM : 250
Capo At 2nd fret

[Intro]

    C                 G                 C
E|-----------0--------------------------------------------------
B|--------------1--------------0-----------------1--------------
G|--------0--------0--------0-----0-----------0-----0-----------
D|-----2-----------------0-----------0-----2-----------2--------
A|--3-----------------------------------3-----------------3-----
E|--------------------3-----------------------------------------

[Verse]

    C                 G                 Am
E|--------------------3--------------------------0-----------------0--
B|--1--------1-----------0-----0--------1-----------1-----------1-----
G|-----0--------0-----------0-----0--------2-----------2-----2--------
D|--------2--------2-----------------0--------2-----------------------
A|--3-----------------2-----------------0-----------------0-----------
E|--------------------------------------------------------------------

          F                 C                 G*
E|-----0--0-----------------0--------------------------0-----------------0-----
B|--3--------1-----1-----------1-----1--------3-----------3-----------3-----3--
G|--------------2-----2-----------0-----0--------0-----------0-----0-----------
D|-----------------------3-----------------2--------0--------------------------
A|--------3-----------------3--------------------------------------------------
E|--------------------------------------------3-----------------3--------------

       F                 G                 Am
E|--------------------------------------------------0-----------0--1--
B|-----------------------0--------0--------1-----------1-----3--------
G|--0--2--------2-----------0--------0--------2-----------2-----------
D|--------3--------3-----------0--------0--------2--------------------
A|-----------3--------3--------------------0--------------------------
E|-----0-----------------3--------------------------------------------

    C                 G*                 C
E|--0--------------------------------------------------------
B|-----1-----1--------3--------3--------1--------1-----------
G|--------0-----0--------0--------0--------0--------0--------
D|-----------------2--------0--------0--------2--------2-----
A|--3-----------------------------------3-----------------3--
E|--------------------3--------------------------------------

[Bridge]

    Em          B7                Em          B7                Em          B7
E|--------------------------------------------------------------------------------------------
B|-----------0-----------0-----------------0-----------0-----------------0-----------0--------
G|-----0--2-----2-----2-----2--------0--2-----2-----2-----2--------0--2-----2-----2-----2-----
D|--2--------------1-----------1--2--------------1-----------1--2--------------1-----------1--
A|--------------2-----------------------------2-----------------------------2-----------------
E|--0-----------------------------0-----------------------------0-----------------------------

    Am                         Dm                G*
E|--------------------0--3--0--1--------1--------3--------3--
B|--1--1-----------1--------------3--------3--------3--------
G|--------------2--------------------2--------2--------0-----
D|-----------2-----------------0-----------------------------
A|--0-----0--------------------------------------------------
E|-----------------------------------------------3--------3--

[Ending]

    C  Em Am          C  G
E|-----3--------0--1--0-----------------0-----
B|--1-----1--3-----------3-----------3-----3--
G|--------------------------------0-----------
D|-----------------------------0--------------
A|--3--2--0-----------3-----0-----------------
E|-----------------1-----3--------------------

Repeat 2nd part of verse (F, G, Am, C, G*, C)

    C
E|-----------------
B|-----------1-----
G|--------0-----0--
D|-----2-----------
A|--3--------------
E|-----------------

Repeat 2nd part of verse (F, G, Am, C, G*, C))
tabs and chords, guitar tabs, music transcription, music technology, deep learning, music information retrieval, transcribe into tabs & chords, chordify, music renditions, songsterr, reverbnation, tabulature, bollywood chords, ultimate guitar, yousician, guitar lessons, acoustic guitar, electric guitar, guitar tuner, 911 tabs