Bass Tabs for Can't Help Falling In Love

Tabs for Song : Can't Help Falling In Love-Elvis Presely
(In 6/8 time)
Order:
Intro
Verse 1
Verse 2+3
Chorus
Verse 2+3
Chorus
Verse 4
4 measures of rest at end

Intro
G|-------------------------
D|-------------------------
A|5-----------5----------4-
E|------5-----------5--57--
  1     1     1     1  456
  
  
Verse 1
G|------------------------------------------------------------------------------------------------
D|------------------------------------------------------------------45-----------------------7----
A|5-----------2-----------------------------0-----------------2---5----7--0-----0-----5-----------
E|------2-----------5-----3-----2-----0-----------3-----5--------------------------------------5--
  1     1     1     1     1     1     1     1     1     1     1  561  4  1     1     1     1  3   
  
  
Verse 2+3
G|------------------------------------------------------------------------------------------------
D|------4----------------------------------------------------------45-----------------------------
A|5-----------2-----2--0--------------------0-----------------2---5----7--0-----0-----5-----0--5--
E|------------------------3-----2-----0-----------3-----5-----------------------------------------
  1     1     1     1  4  1     1     1     1     1     1     1   561  4  1     1     1     1  4  


Chorus
G|------------------------------------------------------------
D|------------------------------------4--4------142---0----7--
A|------4--4--------4--4--------4--4--------2----------20-----
E|2-----------2-----------2-----------------------------------
  1     1  4  1     1  4  1     1  4  1  4  1   561   561  4  


Verse 4
G|------------------------------------------------------------------------------------------------
D|-----------------------------------------------------------------45-----------------------------
A|5-----------2-----2--0--------------------0--0--------------2---5----7--0-----0-----5-----0--5--
E|------2-----------------3-----2-----0-----------3-----5-----------------------------------------
  1     1     1     1  4  1     1     1     1  4  1     1     1   561  4  1     1     1     1  4  
G|------------------------------
D|-----------------45-----------
A|------------2---5----7--0-----
E|3-----5-----------------------
  1     1     1   561  4  1
tabs and chords, guitar tabs, music transcription, music technology, deep learning, music information retrieval, transcribe into tabs & chords, chordify, music renditions, songsterr, reverbnation, tabulature, bollywood chords, ultimate guitar, yousician, guitar lessons, acoustic guitar, electric guitar, guitar tuner, 911 tabs