Guitar Tabs for Can't Help Falling In Love

(/) Slide Up  (\) Slide Down  (h) Hammer On  (p) Pull Off  (b) Bend (r) Release (v) Vibrato (x) Muted
capo at 2nd fret

Tabs for Song : 
BPM : 200

Song lyrics here 
E|-----------0-----------------------------------------------
B|--------------1--------------3-----------------1-----------
G|--------0--------0--------0-----0-----------0-----0--------
D|-----2-----------------0-----------0-----2-----------2-----
A|--3-----------------------------------3-----------------3--
E|--------------------3--------------------------------------

E|-----------0-----3-----------------------0-----------------0-----0--
B|--1-----------1-----0-----0-----1-----------1-----------------3-----
G|-----0-----------------0-----0-----2-----------2--------2-----------
D|--------2-----------------------------2--------------2--------------
A|--3--------------2--------------0-----------------0-----------------
E|--------------------------------------------------------------------

E|--1-----------------0-----------------------0--------------0--------
B|-----1-----1-----------1-----1-----3-----------3--------3-----3-----
G|--------2-----2-----------0-----0--0--0--------------0-----------0--
D|-----------------3-----------------------0--------0-----------------
A|--3-----------------3-----------------------------------------------
E|-----------------------------------3--------------------------------

Song lyrics here 
E|-----------------------------------------------0--------------0--1--0--------0--------
B|--------------------0--------0--------1-----------1-----3--------------1--------1-----
G|--2--------2-----------0--------0--------2-----------2-----2--------------0--------0--
D|-----3--------3-----------0--------0--------2-----------------------------------------
A|--------3--------3--------------------0-----------------0-----------3-----------------
E|--1--------1--------3--------3--------------------------------------------------------

Use manual mode to free up cursor. Paste any tab in acousterr tab maker and we'll play it !!!

E|-----------------------------0-----------------0--------
B|--3--------3--------1-----------1-----------------1-----
G|-----0--------0--------0-----------0--------0--------0--
D|--------0--------0--------2--------------2--------------
A|--------------------3-----------------3-----------------
E|--3-----------------------------------------------------

E|--------------------------------------------------------------------------
B|-----------------0-----------0-----------------------0-----------0--------
G|--------0-----2-----2-----2-----2-----------0-----2-----2-----2-----2-----
D|--2--------2-----------1-----------1--2--------2-----------1-----------1--
A|-----2--------------2--------------------2--------------2-----------------
E|--0-----------------------------------0-----------------------------------

E|--------------------------------------------------------------0-----3--0--
B|-----------------0-----------0--------1-----1-----------1-----------------
G|--------0-----2-----2-----2-----2--------2-----------2-----2-----2--------
D|--2--------2-----------1-----------1--------------2-----------------------
A|-----2--------------2-----------------0--------0--------------------------
E|--0-----------------------------------------------------------------------

E|--1--------1--------3--------3--
B|-----3--------3--------3--------
G|--------2--------2--------0-----
D|--0-----------------------------
A|--------------------------------
E|--------------------3-----------

E|-----3--------0--1--0--------------0--------
B|--1-----1--3-----------3--------3-----3-----
G|-----------------------------0-----------0--
D|--------------------------0-----------------
A|--3--2--0-----------3-----------------------
E|-----------------1-----3--------------------


E|-----------------------------------------------0--------------0--1--0--------0--------
B|--------------------0--------0--------1-----------1-----3--------------1--------1-----
G|--2--------2-----------0--------0--------2-----------2-----2--------------0--------0--
D|-----3--------3-----------0--------0--------2-----------------------------------------
A|--------3--------3--------------------0-----------------0-----------3-----------------
E|--1--------1--------3--------3--------------------------------------------------------


E|-----------------------------0-----------------0--------
B|--3--------3--------1-----------1-----------------1-----
G|-----0--------0--------0-----------0--------0--------0--
D|--------0--------0--------2--------------2--------------
A|--------------------3-----------------3-----------------
E|--3-----------------------------------------------------


E|--------------------------------------------------------------0-----1--
B|--------------------0--------0--------1--------1--------3--------------
G|--2--------2-----------0--------0--------2--------2--------2-----2-----
D|-----3--------3-----------0--------0--------2--------2-----------------
A|--------3--------3--------------------0--------0--------0--------------
E|--1--------1--------3--------3-----------------------------------------

E|--0--------3-----------3-----------0--8--
B|-----1--------3-----------1-----------8--
G|--------0-----0--0--------0--0--------9--
D|--------------0-----0-----2-----2--------
A|--3-----------------------3--------------
E|--------------3--------------------------
tabs and chords, guitar tabs, music transcription, music technology, deep learning, music information retrieval, transcribe into tabs & chords, chordify, music renditions, songsterr, reverbnation, tabulature, bollywood chords, ultimate guitar, yousician, guitar lessons, acoustic guitar, electric guitar, guitar tuner, 911 tabs