Canon In C - Pachelbel - Guitar Tabs

Guitar
    
    C                                                                                                                                                                                                                                                                                                                                                                                                                                                                                                                                                                                             C                                                                                                                                                                                                                                                                                                                                                                                                                                                                                                                                                                                             
E|--0----------------------|-----------------------|
B|--1----------------------|3----------------------|
G|-------------------------|0----------------------|
D|-------------------------|-----------------------|
A|--3----------------------|-----------------------|
E|-------------------------|3----------------------|

    
    Am                                                                                                                                                                                                                                                                                                                                                                                                                                                                                                                                                                                             Am                                                                                                                                                                                                                                                                                                                                                                                                                                                                                                                                                                                             
E|-------------------------|-----------------------|
B|--1----------------------|0----------------------|
G|--2----------------------|0----------------------|
D|-------------------------|-----------------------|
A|--0----------------------|-----------------------|
E|-------------------------|0----------------------|

    
    F                                                                                                                                                                                                                                                                                                                                                                                                                                                                                                                                                                                             F                                                                                                                                                                                                                                                                                                                                                                                                                                                                                                                                                                                             
E|-------------------------|-----------------------|
B|-------------------------|-----------------------|
G|--2----------------------|0----------------------|
D|--3----------------------|2----------------------|
A|-------------------------|3----------------------|
E|--1----------------------|-----------------------|

    
    F                                                                                                                                                                                                                                                                                                                                                                                                                                                                                                                                                                                             F                                                                                                                                                                                                                                                                                                                                                                                                                                                                                                                                                                                             
E|-------------------------|-----------------------|
B|-------------------------|0----------------------|
G|--2----------------------|0----------------------|
D|--3----------------------|-----------------------|
A|-------------------------|-----------------------|
E|--1----------------------|3----------------------|

    
                                                                                                                                                                                                                                                                                                                                                                                                                                                                                                                                                                                                                                                                                                                                                                                                                                                                                                                                                                                                                                                                                                                                                                                              
E|--------------------0----|-----------------------|
B|--------------1----------|------------------0----|
G|--------0----------------|------------0----------|
D|-------------------------|------0----------------|
A|--3----------------------|-----------------------|
E|-------------------------|3----------------------|

    
                                                                                                                                                                                                                                                                                                                                                                                                                                                                                                                                                                                                                                                                                                                                                                                                                                                                                                                                                                                                                                                                                                                                                                                              
E|-------------------------|-----------------------|
B|--------------------1----|------------------0----|
G|--------------2----------|------------0----------|
D|--------2----------------|------2----------------|
A|--0----------------------|-----------------------|
E|-------------------------|0----------------------|

    
                                                                                                                                                                                                                                                                                                                                                                                                                                                                                                                                                                                                                                                                                                                                                                                                                                                                                                                                                                                                                                                                                                                                                                                              
E|-------------------------|-----------------------|
B|--------------------1----|------------------1----|
G|--------------2----------|------------0----------|
D|--------3----------------|------2----------------|
A|-------------------------|3----------------------|
E|--1----------------------|-----------------------|

    
                                                                                                                                                                                                                                                                                                                                                                                                                                                                                                                                                                                                 
E|-------------------------|
B|--------------------1----|
G|--------------2----------|
D|--------3----------------|
A|-------------------------|
E|--1----------------------|

    
                                                                                                                                                                                                                                                                                                                                                                                                                                                                                                                                                                                                                                                                                                                                                                                                                                                                                                                                                                                                                                                                                                                                                                                              
E|-------------------------|0-----------------0----|
B|--------------------0----|------------1----------|
G|--------------0----------|------0----------------|
D|--------0----------------|-----------------------|
A|-------------------------|3----------------------|
E|--3----------------------|-----------------------|

    
                                                                                                                                                                                                                                                                                                                                                                                                                                                                                                                                                                                                                                                                                                                                                                                                                                                                                                                                                                                                                                                                                                                                                                                              
E|-------------------------|-----------------------|
B|--3-----------------3----|1-----------------1----|
G|--------------0----------|------------2----------|
D|--------0----------------|------2----------------|
A|-------------------------|0----------------------|
E|--3----------------------|-----------------------|

    
                                                                                                                                                                                                                                                                                                                                                                                                                                                                                                                                                                                                                                                                                                                                                                                                                                                                                                                                                                                                                                                                                                                                                                                              
E|-------------------------|-----------------------|
B|--0-----------------0----|-----------------------|
G|--------------0----------|2-----------------2----|
D|--------2----------------|------------3----------|
A|-------------------------|------3----------------|
E|--0----------------------|1----------------------|

    
                                                                                                                                                                                                                                                                                                                                                                                                                                                                                                                                                                                                                                                                                                                                                                                                                                                                                                                                                                                                                                                                                                                                                                                              
E|-------------------------|-----------------------|
B|-------------------------|-----------------------|
G|--0-----------------0----|2-----------------2----|
D|--------------2----------|------------3----------|
A|--------3----------------|------3----------------|
E|--0----------------------|1----------------------|

    
                                                                                                                                                                                                                                                                                                                                                                                                                                                                                                                                                                                                 
E|-------------------------|
B|--0-----------------0----|
G|--------------0----------|
D|--------0----------------|
A|-------------------------|
E|--3----------------------|

    
                                                                                                                                                                                                                                                                                                                                                                                                                                                                                                                                                                                                                                                                                                                                                                                                                                                                                                                                                                                                                                                                                                                                                                                              
E|--------------0----------|3-----------1----------|
B|--1----------------------|-----------------------|
G|--------0-----------0----|------0-----------0----|
D|-------------------------|-----------------------|
A|--3----------------------|-----------------------|
E|-------------------------|3----------------------|

    
                                                                                                                                                                                                                                                                                                                                                                                                                                                                                                                                                                                                                                                                                                                                                                                                                                                                                                                                                                                                                                                                                                                                                                                              
E|--0----------------------|3-----------5----------|
B|--------------1----------|-----------------------|
G|--------2-----------2----|------0-----------0----|
D|-------------------------|-----------------------|
A|--0----------------------|-----------------------|
E|-------------------------|0----------------------|

    
                                                                                                                                                                                                                                                                                                                                                                                                                                                                                                                                                                                                                                                                                                                                                                                                                                                                                                                                                                                                                                                                                                                                                                                              
E|--1----------------------|-----------------------|
B|--------------1----------|1----------------------|
G|--------2-----------2----|------------0----------|
D|--3----------------------|------2-----------2----|
A|-------------------------|3----------------------|
E|-------------------------|-----------------------|

    
                                                                                                                                                                                                                                                                                                                                                                                                                                                                                                                                                                                                                                                                                                                                                                                                                                                                                                                                                                                                                                                                                                                                                                                              
E|-------------------------|-----------------------|
B|--------------1----------|1-----------0----------|
G|--2----------------------|-----------------------|
D|--------3-----------3----|------0-----------0----|
A|-------------------------|-----------------------|
E|--1----------------------|3----------------------|

    
                                                                                                                                                                                                                                                                                                                                                                                                                                                                                                                                                                                                 
E|-------------------------|
B|--1-----0-----1----------|
G|-------------------------|
D|--------------------2----|
A|--3----------------------|
E|-------------------------|

    
                                                                                                                                                                                                                                                                                                                                                                                                                                                                                                                                                                                                                                                                                                                                                                                                                                                                                                                                                                                                                                                                                                                                                                                              
E|-------------------------|------------------0----|
B|--------------------0----|1-----0-----1----------|
G|--0-----------2----------|-----------------------|
D|--------0----------------|-----------------------|
A|-------------------------|0----------------------|
E|--3----------------------|-----------------------|

    
                                                                                                                                                                                                                                                                                                                                                                                                                                                                                                                                                                                                                                                                                                                                                                                                                                                                                                                                                                                                                                                                                                                                                                                              
E|--3-----0-----3-----5----|1-----0-----------1----|
B|-------------------------|------------3----------|
G|-------------------------|-----------------------|
D|-------------------------|3----------------------|
A|-------------------------|-----------------------|
E|--0----------------------|-----------------------|

    
                                                                                                                                                                                                                                                                                                                                                                                                                                                                                                                                                                                                 
E|--0----------------------|
B|--------3-----1----------|
G|--------------------0----|
D|-------------------------|
A|--3----------------------|
E|-------------------------|

    
                                                                                                                                                                                                                                                                                                                                                                                                                                                                                                                                                                                                 
E|-------------------------|
B|--------------------1----|
G|--2-----0----------------|
D|--------------3----------|
A|-------------------------|
E|--1----------------------|

    
                                                                                                                                                                                                                                                                                                                                                                                                                                                                                                                                                                                                                                                                                                                                                                                                                                                                                                                                                                                                                                                                                                                                                                                              
E|-------------------------|3-----0--1--3-----0--1-|
B|--1-----------0----------|-----------------------|
G|-------------------------|-----------------------|
D|--------0-----------0----|-----------------------|
A|-------------------------|3----------------------|
E|--3----------------------|-----------------------|

    
                                                                                                                                                                                                                                                                                                                                                                                                                                                                                                                                                                                                                                                                                                                                                                                                                                                                                                                                                                                                                                                                                                                                                                                              
E|--3-----------------0--1-|0-----------0----------|
B|-----------0--1--3-------|------1--3-------------|
G|-----0--2----------------|-----------------------|
D|-------------------------|------------------2--3-|
A|-------------------------|0----------------------|
E|--3----------------------|-----------------------|

    
                                                                                                                                                                                                                                                                                                                                                                                                                                                                                                                                                                                                                                                                                                                                                                                                                                                                                                                                                                                                                                                                                                                                                                                              
E|-------------------------|-----------------------|
B|-----------------1--0--1-|------1--0-------------|
G|--0--2--0-----0----------|2-----------2-----0----|
D|-----------3-------------|3--------------------3-|
A|-------------------------|-----------------------|
E|--0----------------------|-----------------------|

    
                                                                                                                                                                                                                                                                                                                                                                                                                                                                                                                                                                                                                                                                                                                                                                                                                                                                                                                                                                                                                                                                                                                                                                                              
E|-------------------------|-----------------------|
B|--------------------0--1-|------1--0--1-----0----|
G|--0-----------0--2-------|2--------------------2-|
D|-----3--2--3-------------|3----------------------|
A|-------------------------|-----------------------|
E|--0----------------------|-----------------------|

    
                                                                                                                                                                                                                                                                                                                                                                                                                                                                                                                                                                                                 
E|-------------------------|
B|--0--1--3--1--0--1-----0-|
G|--------------------2----|
D|-------------------------|
A|-------------------------|
E|--3----------------------|

    
                                                                                                                                                                                                                                                                                                                                                                                                                                                                                                                                                                                                                                                                                                                                                                                                                                                                                                                                                                                                                                                                                                                                                                                              
E|--0-----------0----------|------------0----------|
B|--------1--3--------3--1-|3--0--1--3-----3--1--0-|
G|-------------------------|-----------------------|
D|-------------------------|-----------------------|
A|--3----------------------|-----------------------|
E|-------------------------|3----------------------|

    
                                                                                                                                                                                                                                                                                                                                                                                                                                                                                                                                                                                                                                                                                                                                                                                                                                                                                                                                                                                                                                                                                                                                                                                              
E|-------------------------|-----------------------|
B|--1--------0--1----------|---------------1--0--1-|
G|--------2----------------|0--2--0-----0----------|
D|--------------------2--3-|---------3-------------|
A|--0----------------------|-----------------------|
E|-------------------------|0----------------------|

    
                                                                                                                                                                                                                                                                                                                                                                                                                                                                                                                                                                                                                                                                                                                                                                                                                                                                                                                                                                                                                                                                                                                                                                                              
E|-------------------------|-----------------------|
B|--------1--0-------------|------------------0--1-|
G|--2-----------2-----0----|0-----------0--2-------|
D|--3--------------------3-|---3--2--3-------------|
A|-------------------------|-----------------------|
E|-------------------------|0----------------------|

About Pachelbel's Canon - Johann Pachelbel's Canon is an accompanied canon by 3 violins and basso continuo . Neither the date nor circumstances of composition are known . The oldest surviving manuscript copy of the piece dates from 19th century . Pachelbel's Canon, although popular during his lifetime, went out of style, and remained in obscurity for centuries . A 1968 arrangement and recording of it by the Jean-Fran├žois Paillard chamber orchestra gained popularity . By the early 1980s its presence as background music was deemed inescapable . The canon was originally scored for three violins and basso continuo and paired with a gigue . Both movements are in the key of D major . Although a true canon at the unison in Pachelbel's Canon had an affiliation to band(s) - Pachelbel's Canon.

tabs and chords, guitar tabs, music transcription, music technology, deep learning, music information retrieval, transcribe into tabs & chords, chordify, music renditions, songsterr, reverbnation, tabulature, bollywood chords, ultimate guitar, yousician, guitar lessons, acoustic guitar, electric guitar, guitar tuner, 911 tabs