Guitar Tabs for Canon In C (pachelbel)

(/) Slide Up  (\) Slide Down  (h) Hammer On  (p) Pull Off  (b) Bend (r) Release (v) Vibrato (x) Muted

Tabs for Song : 

Song lyrics here
E|--0-----------------------------------------------
B|--1-----------3------------1----------0-----------
G|--------------0------------2----------0-----------
D|--------------------------------------------------
A|--3------------------------0----------------------
E|--------------3-----------------------0-----------

E|--------------------------------------------------
B|--------------------------------------0-----------
G|--2-----------0-----------2-----------0-----------
D|--3-----------2-----------3-----------------------
A|--------------3-----------------------------------
E|--1-----------------------1-----------3-----------

Song lyrics here
E|-----------0--------------------------------------
B|--------1--------------0-----------1-----------0--
G|-----0--------------0-----------2-----------0-----
D|-----------------0-----------2-----------2--------
A|--3-----------------------0-----------------------
E|--------------3-----------------------0-----------

E|--------------------------------------------------
B|-----------1-----------0-----------1-----------0--
G|--------2-----------0-----------2-----------0-----
D|-----3-----------2-----------3-----------0--------
A|--------------------------------------------------
E|--1-----------0-----------1-----------3-----------

E|--0--------0--------------------------------------
B|--------1-----3--------3--1--------1--0--------0--
G|-----0--------------0-----------2-----------0-----
D|-----------------0-----------2-----------2--------
A|--3-----------------------0-----------------------
E|--------------3-----------------------0-----------

E|--------------------------------------------------
B|--------------------------------------0--------0--
G|--2--------2--0--------0--2--------2--------0-----
D|--------3-----------2-----------3--------0--------
A|-----3-----------3-----------3--------------------
E|--1-----------0-----------1-----------3-----------

E|--------0-----3-----1-----0-----------3-----5-----
B|--1-----------------------------1-----------------
G|-----0-----0-----0-----0-----2-----2-----0-----0--
D|--------------------------------------------------
A|--3-----------------------0-----------------------
E|--------------3-----------------------0-----------

E|--1-----------0-----------------------------------
B|--------1-----------1-----------1-----1-----0-----
G|-----2-----2-----0-----0--2--------------0-----0--
D|--3---------------------------3-----3-------------
A|--------------3-----------------------------------
E|--------------------------1-----------3-----------

E|--------0-----3-----1-----0-----------3-----5-----
B|--1-----------------------------1-----------------
G|-----0-----0-----0-----0-----2-----2-----0-----0--
D|--------------------------------------------------
A|--3-----------------------------------------------
E|--------------3-----------0-----------0-----------

E|--1-----------0-----------------------------------
B|--------1-----------1-----------1-----1-----0-----
G|-----2-----2-----0-----0--2--------------0-----0--
D|--3--------------------------3-----3--------------
A|--------------3-----------------------------------
E|--------------------------1-----------3-----------

E|-----------------------------------0--3-----3--5--
B|--1--0--1--------------0--1--0--1-----------------
G|--------------0-----2--------------------0--------
D|-----------2-----0--------------------------------
A|--3-----------------------0-----------------------
E|--------------3-----------------------0-----------

E|--1--0-----1--0-----------------------------------
B|--------3--------3--1--------------1--1-----0-----
G|-----------------------0--2--0--------------------
D|--3-----------------------------3--------0-----0--
A|--------------3-----------------------------------
E|--------------------------1-----------3-----------

E|-----------------------------------0--3-----3--5--
B|--1--0--1--------------0--1--0--1-----------------
G|--------------0-----2--------------------0--------
D|-----------2-----0--------------------------------
A|--3-----------------------0-----------------------
E|--------------3-----------------------0-----------

E|--1--0-----1--0-----------------------------------
B|--------3--------3--1--------------1--1-----0-----
G|-----------------------0--2--0--------------------
D|--3-----------------------------3--------0-----0--
A|--------------3-----------------------------------
E|--------------------------1-----------3-----------

E|--3-----0--1--3-----0--1--3-----------------0--1--
B|-----------------------------------0--1--3--------
G|-----------------------------0--2-----------------
D|--------------------------------------------------
A|--3-----------------------------------------------
E|--------------------------3-----------------------

E|--0-----------0-----------------------------------
B|--------1--3----------------------------1--0--1---
G|--------------------------0h2--0-----0-------------
D|---------------------2/3----------3----------------
A|--0-----------------------------------------------
E|--------------------------0-----------------------

E|--------------------------------------------------
B|--------1--0--------------------------------1--0--
G|--2-----------2-----0------0-----------0--2-------
D|--3---------------------3-----3--2--3-------------
A|--------------------------------------------------
E|---------------------------0----------------------



E|--------------------------------------------------
B|--------1--0--1-----0-----0--1--3--1--0--1-----0--
G|--2--------------------2--------------------2-----
D|--3-----------------------------------------------
A|--------------------------------------------------
E|--------------------------3-----------------------

E|--3-----0--1--3-----0--1--3-----------------0--1--
B|-----------------------------------0--1--3--------
G|-----------------------------0--2-----------------
D|--------------------------------------------------
A|--3-----------------------------------------------
E|--------------------------3-----------------------

E|--0-----------0-----------------------------------
B|--------1--3-----------------------------1--0--1--
G|--------------------------0--2--0-----0-----------
D|--------------------2--3-----------3--------------
A|--0-----------------------------------------------
E|--------------------------0-----------------------



E|--------------------------------------------------
B|--------1--0--------------------------------1--0--
G|--2-----------2-----0-----0-----------0--2--------
D|--3--------------------3-----3--2--3--------------
A|--------------------------------------------------
E|--------------------------0-----------------------

E|--------------------------------------------------
B|--------1--0--1-----0-----0--1--3--1--0--1-----0--
G|--2--------------------2--------------------2-----
D|--3-----------------------------------------------
A|--------------------------------------------------
E|--------------------------3-----------------------

E|--0-----------0-----------------------0-----------
B|--------1--3--------3--1--3--0--1--3-----3--1--0--
G|--------------------------------------------------
D|--------------------------------------------------
A|--3-----------------------------------------------
E|--------------------------3-----------------------

E|--------------------------------------------------
B|--1--------0--1--------------------------1--0--1--
G|--------2-----------------0--2--0-----0-----------
D|--------------------2--3-----------3--------------
A|--0-----------------------------------------------
E|--------------------------0-----------------------

E|--------------------------------------------------
B|--------1--0--------------------------------1--0--
G|--2-----------2-----0-----0-----------0--2--------
D|--3--------------------3-----3--2--3--------------
A|--------------------------------------------------
E|--------------------------0-----------------------

E|--------------------------------------------------
B|--------1--0--1-----0-----0--1--3--1--0--1-----0--
G|--2--------------------2--------------------2-----
D|--3-----------------------------------------------
A|--------------------------------------------------
E|--------------------------3-----------------------

E|--0--------0--0--1--0-----------------------------
B|--------1--------------3--1--------1--1--3--1--0--
G|-----0--------------------------2-----------------
D|-----------------------------2--------------------
A|--3-----------------------0-----------------------
E|--------------3-----------------------0-----------

E|--------------------------------------------------------0--1--
B|--------1-----1-----------1-----------0--------0--1--3--------
G|--2-----------------0--------3--2--3-----0--2-----------------
D|-----3-----3-----2-----2--3-----------------------------------
A|--------------3-----------------------------------------------
E|--1-----------------------------------3-----------------------

E|--3--------3--3--1--0-----0--1--0-----------------------------
B|--------1--------------3-----------3--1-----------1-----------
G|-----0--------------------------------------2-----------0-----
D|-----------------------------------------3-----3-----2-----2--
A|--3-----------------------0-----------------------3-----------
E|--------------3-----------------------1-----------------------

E|--------------------------------0--1--0--------
B|--1-----------0--------0--1--3--------1--------
G|-----3--2--3-----0--2-----------------0-----0--
D|--3-----------------------------------------2--
A|--------------------------------------3--------
E|--------------3--------------------------------

E|-----------------------------------------------
B|--3-----------1-----------0--------------------
G|--0-----0-----2-----2-----0-----0-----2--------
D|--0-----0-----1-----1-----2-----2-----3-----3--
A|--------------0-----------------------3-----3--
E|--3-----------------------0-----------1--------

E|-----------------------------------------------
B|--------------------------0-----------1--------
G|--0-----------2-----------0------0----0--------
D|--2-----2-----3------3----0------0----2--------
A|--3-----3-----3------3----------------3--------
E|--0-----------1-----------3--------------------



Paste any tab in acousterr's tab maker and we'll play it !!!
Now supports capo and sound effects for vibrato/pull-off/hammer/bends/mutes etc !!! Checkout help section
tabs and chords, guitar tabs, music transcription, music technology, deep learning, music information retrieval, transcribe into tabs & chords, chordify, music renditions, songsterr, reverbnation, tabulature, bollywood chords, ultimate guitar, yousician, guitar lessons, acoustic guitar, electric guitar, guitar tuner, 911 tabs