Guitar Tabs for Can Divit

Tabs
E|--------------------------------------------------------------------
B|--------------------------------------------------------------------
G|-----4--4--2--------------------------4--4--2-----------------------
D|--------------4--2--2--2--0--2--4--------------4--2--2--0--2--4--0--
A|--2--------------------------------2--------------------------------
E|--------------------------------------------------------------------

Chords: Bmaj             Dmaj  Emaj              Amaj
E|-----2--2--2--2--2--2--2--2--0--0--0--0--0--0--0--0--
B|-----4--4--4--4--4--4--3--3--0--0--0--0--0--0--2--2--
G|-----4--4--4--4--4--4--2--2--1--1--1--1--1--1--2--2--
D|-----4--4--4--4--4--4--0--0--2--2--2--2--2--2--2--2--
A|-----2--2--2--2--2--2--------2--2--2--2--2--2--0--0--
E|-----------------------------0--0--0--0--0--0--------
tabs and chords, guitar tabs, music transcription, music technology, deep learning, music information retrieval, transcribe into tabs & chords, chordify, music renditions, songsterr, reverbnation, tabulature, bollywood chords, ultimate guitar, yousician, guitar lessons, acoustic guitar, electric guitar, guitar tuner, 911 tabs