Californication Jam - Guitar Tabs

(/) Slide Up  (\) Slide Down  (h) Hammer On  (p) Pull Off  (b) Bend (r) Release (v) Vibrato (x) Muted

Tabs for Song : 
BPM : 200

Song lyrics here 
E|--5--3--5v-5--3--5--3--------------3--------------------------------------------------------------8-----8--10/12-12-12v
B|-----------------------5--5v--3\5--------------------------------------------8-----8--10b11-10-10v---10----------------
G|--------------------------------------------------5---7b8--7--5--7--5v--7/9v----9--------------------------------------
D|--------------------------------------7--5--7--7-----------------------------------------------------------------------
A|-----------------------------------------------------------------------------------------------------------------------
E|-----------------------------------------------------------------------------------------------------------------------

Song lyrics here 
E|--12-10-h---10----------------------------------12-10----10----------------------------12-10----10-------------------------
B|--------13----13-12-13-12-10-12-10----10-10-10-------13----13-12-13-12-10-12-10----10-------13----13-12-13-12-10-12-10----
G|-----------------------------------12-------------------------------------------12-------------------------------------12-
D|--------------------------------------------------------------------------------------------------------------------------
A|--------------------------------------------------------------------------------------------------------------------------
E|--------------------------------------------------------------------------------------------------------------------------

Use manual mode to free up cursor. Paste any tab in acousterr tab maker and we'll play it !!!

E|--12-10----10-------------------------------------------------------------------------------------------------
B|--------13----13-12-13-12-10-12-10----10-8-----8--------------------------------5--------5--------5--------5--
G|-----------------------------------12-------9-----9--7--9--7-----7-----------5--------5--------5--------5-----
D|--------------------------------------------------------------10----10-9--7--------7--------7--------7--------
A|--------------------------------------------------------------------------------------------------------------
E|--------------------------------------------------------------------------------------------------------------

E|--------------------------------------------------------x--x--------------8--12-------12-------12-------15-------
B|--------6--------5--------8--------5--------5--------8--x--x--10-8--10----10----13-------13-------13-------13----
G|-----5--------5--------5--------5--------5--------5-----x--x-----------------------14-------14-------14-------14-
D|--7--------7--------7--------7--------7--------7--------x--x-----------------------------------------------------
A|--------------------------------------------------------x--x-----------------------------------------------------
E|--------------------------------------------------------x--x-----------------------------------------------------

E|--15-------15-------15-------12-------12-------12-------15-------15-------15-
B|-----13-------13-------13-------13-------13-------13-------13-------13----13-
G|--------14-------14-------14-------14-------14-------14-------14-------14----
D|-----------------------------------------------------------------------------
A|-----------------------------------------------------------------------------
E|-----------------------------------------------------------------------------

E|--------------------12-12----------------------------------------------------------------------------
B|-----------------13-------15-13-15-13-12-13----------------------------------------------------------
G|--14-12-14-14-14----------------------------14-14-14-12----------------------------------------------
D|--------------------------------------------------------15-14-15/14-14-12----12-------------12/14----
A|--------------------------------------------------------------------------15----15-14-15/14-------12-
E|-----------------------------------------------------------------------------------------------------

E|--------------------------------------------------------------------------------------------------
B|--------------------------------------------------------------------------13----13h15/17-17-17-17-
G|--------------12----12h14-14-------------------------12----12-14b16-14-14----14-------------------
D|--------12-14----14----------12p10-12-12-12-10-12/14----14----------------------------------------
A|--12-15-------------------------------------------------------------------------------------------
E|--------------------------------------------------------------------------------------------------

E|--------------------------0--0--0--0--12-0--0--10-0--0--8--0--0--7--0--0--
B|--15-15\13-13-15-13-13-12-0--0--------------------------------------------
G|--------------------------------------------------------------------------
D|--------------------------------------------------------------------------
A|--------------------------------------------------------------------------
E|--------------------------------------------------------------------------

E|--12-0--0--10-0--0--8--0--0--7--0--0--5--0--0--15-0--0--12-0--0--15-0--17-0--0--17-0--0--17-0--0--17/19-17-17-17-
B|-----------------------------------------------------------------------------------------------------------------
G|-----------------------------------------------------------------------------------------------------------------
D|-----------------------------------------------------------------------------------------------------------------
A|-----------------------------------------------------------------------------------------------------------------
E|-----------------------------------------------------------------------------------------------------------------

E|--17-17-17-17-17-15----15-17-17-17-17-15-13-12-13-12-13-12----12-------------------------
B|--------------------17-------------------------------------15----15-13-15-13-12-13-12----
G|--------------------------------------------------------------------------------------14-
D|-----------------------------------------------------------------------------------------
A|-----------------------------------------------------------------------------------------
E|-----------------------------------------------------------------------------------------

E|--12----------------------------------
B|-----15-13-15-13-12-13-12----12-------
G|--------------------------14----14-12-
D|--------------------------------------
A|--------------------------------------
E|--------------------------------------

E|--------------------------------------------------------------------------------------------------
B|---5h7--7v--7p5---7p5---------5h7--7v--7b9---7p5--------------------------------------------------
G|-----------------------6--------------------------6---------------------------------------5h-7/9--
D|--------------------------4--------------------------4--4--4--7--6--4--------4--7--4--7-----------
A|-----------------------------------------------------------------------7--7-----------------------
E|--------------------------------------------------------------------------------------------------

E|---------------------------------------------9p7--9---9/14-14p12-14-14-14p12-14-14p12-14----12----12----
B|--7-----------------7--9--7--7---7p5--7--7-----------------------------------------------14----14----14-
G|-----5------5h-7\9--------------------------------------------------------------------------------------
D|--------7-----------------------------------------------------------------------------------------------
A|--------------------------------------------------------------------------------------------------------
E|--------------------------------------------------------------------------------------------------------

E|-----------------------------------------------------12-------------a--------------------------------
B|--14b15-14b15-14b15-14b15-12-14----------14-------------14-------14-14p12-------------------------12-
G|--------------------------------14-12h14----14-12h14-------12h14----------14-12h14-14-14p12-11-11----
D|-----------------------------------------------------------------------------------------------------
A|-----------------------------------------------------------------------------------------------------
E|-----------------------------------------------------------------------------------------------------

E|--------------------------------------------------------------12-14-12-14-14b16-14-12-14p12-14p12-14-\
B|-----------------------9---9p7-----7-----------7--9--10-12-14----------------------------------------
G|--14-13-14-14p13-11-11----------9-----9--7--9--------------------------------------------------------
D|-----------------------------------------------------------------------------------------------------
A|-----------------------------------------------------------------------------------------------------
E|-----------------------------------------------------------------------------------------------------


Californication Jam - Guitar Tabs






                                  F     Am                      Am                            
E|--------------------------------1-----0-----------------------0-----------------------------
B|--------------------------------1-----1-----------------------1-----------------------------
G|--------------------------------2-----2-----------------------2-----------------------------
D|--------------------------------3-----2-----------------------2-----------------------------
A|--------------------------------3-----0-----------------------0-----------------------------
E|--------------------------------1-----------------------------------------------------------

                                                                F                             
E|--------------------------------------------------------------1-----------------------------
B|--------------------------------------------------------------1-----------------------------
G|--------------------------------------------------------------2-----------------------------
D|--------------------------------------------------------------3-----------------------------
A|--------------------------------------------------------------3-----------------------------
E|--------------------------------------------------------------1-----------------------------

                                        
E|--------------------------------------
B|--------------------------------------
G|--------------------------------------
D|--------------------------------------
A|--------------------------------------
E|--------------------------------------

tabs and chords, guitar tabs, music transcription, music technology, deep learning, music information retrieval, transcribe into tabs & chords, chordify, music renditions, songsterr, reverbnation, tabulature, bollywood chords, ultimate guitar, yousician, guitar lessons, acoustic guitar, electric guitar, guitar tuner, 911 tabs