Guitar Tabs for Californication

(/) Slide Up  (\) Slide Down  (h) Hammer On  (p) Pull Off  (b) Bend (r) Release (v) Vibrato (x) Muted

Tabs for Song : 

Song lyrics here
E|--------------------------------------------------------------------------------------------
B|--------0--1-----------------------------------------0--1-----------------------------------
G|-----------------------------0--2-----------------------------------------0--2--------------
D|-----2--------------------------------------------2-----------------------------------------
A|--0-----------------------3--------------------0-----------------------3--------------------
E|-----------------------1--------------------------------------------1-----------------------

Song lyrics here
E|-----------------------------------------------------------------------------------------
B|--------0--1-----------------------------------------0--1--------------------------------
G|-----------------------------0--2-----------------------------------------0--2-----------
D|-----2--------------------------------------------2--------------------------------------
A|--0-----------------------3--------------------0-----------------------3-----------------
E|-----------------------1--------------------------------------------1--------------------

E|-----------------
B|--------5--------
G|-----------------
D|-----5-----5-----
A|--3--------------
E|-----------------

Now supports capo and sound effects for vibrato/pull-off/hammer/bends/mutes etc !!! Checkout help section
tabs and chords, guitar tabs, music transcription, music technology, deep learning, music information retrieval, transcribe into tabs & chords, chordify, music renditions, songsterr, reverbnation, tabulature, bollywood chords, ultimate guitar, yousician, guitar lessons, acoustic guitar, electric guitar, guitar tuner, 911 tabs