Bushman - Down Town - Bass Tabs

(/) Slide Up  (\) Slide Down  (h) Hammer On  (p) Pull Off  (b) Bend (r) Release (v) Vibrato (x) Muted

Tabs for Song : 
BPM : 200
G|--1--
D|-----
A|-----
E|-----
B|-----


INTRO
    F                       A                       G                       C
G|--------------------------------------------------------------------------------------------------
D|--------------------------------------------------------------------------------------------------
A|--------------------------------------------------------------------------------3-----------------
E|--------1--1--1--1--1-----------5--5--5--5--5-----------3--3--3--3--3-----3-----------------------
B|--------------------------------------------------------------------------------------------------

VERS / CHORUS
    F                       C                       F                       C
G|--------------------------------------------------------------------------------------------------
D|--------------------------------------------------------------------------------------------------
A|--------------------------------------------------------------------------------------------------
E|--------------5--8--------------8--8--6--5--3-----------------5--8-----------------------7--10----
B|--6-----6--6--------------------------------------6-----6--6--------------------8--8--8-----------

G|--
D|--
A|--
E|--
B|--

Use manual mode to free up cursor. Paste any tab in acousterr tab maker and we'll play it !!!

About Zeniff, Arizona : Zeniff, Arizona was a town in Navajo County, Arizona . It was settled in 1911 by the Preston Bushman family with the goal of dry farming . The town was located 15 miles SW of Holbrook, Arizona off SR 377, near "Dry Lake" All land was purchased from the Aztec Land and Cattle Company . The Bushmans were joined by Gardner, Heward and Hunt families that year . Owning water rights to various draws was essential for survival . Zeniff consisted primarily of single room adobe cabins and frame houses . Dry farming and cattle ranching were the primary way of life . Music was an integral part of residents lives both at home and at school . Zeniff, Arizona has a significant contribution from artist(s) John Bushman. The track has an affiliation to the band(s) - Zeniff, Arizona.

tabs and chords, guitar tabs, music transcription, music technology, deep learning, music information retrieval, transcribe into tabs & chords, chordify, music renditions, songsterr, reverbnation, tabulature, bollywood chords, ultimate guitar, yousician, guitar lessons, acoustic guitar, electric guitar, guitar tuner, 911 tabs