Guitar Tabs for Town

(/) Slide Up  (\) Slide Down  (h) Hammer On  (p) Pull Off  (b) Bend (r) Release (v) Vibrato (x) Muted

Tabs for Song : Town
BPM : 200


INTRO   (come in with everyone)
E|--7--7--7--7--7--7--7--7--5--5--5--5--5--5--5--5--
B|--9--9--9--9--9--9--9--9--7--7--7--7--7--7--7--7--
G|--8--8--8--8--8--8--8--8--6--6--6--6--6--6--6--6--          x2
D|--9--9--9--9--9--9--9--9--7--7--7--7--7--7--7--7--
A|--7--7--7--7--7--7--7--7--5--5--5--5--5--5--5--5--
E|--0--0--0--0--7--7--7--7--5--5--5--5--5--5--5--5--


VERSE1
Go,             redefine your vibe
E|--------------------------------------------------
B|--------------------------------------------------
G|---9--9--9--9--8--8--8--8--6--6--6--6--6--6--6--6-       
D|--9--9--9--9--9--9--9--9--7--7--7--7--7--7--7--7--      x4 
A|--------------------------------------------------
E|--------------------------------------------------

Know, on will be the lights,
Why do you want to go?
Why would you let me know?


CHORUS1

              
                           Are you in another       mi-ind                 Ooaah

     Dmaj7                                          Aadd9
E|--5--5--5--5--5--5--5--5--5--5--5--5--5--5--5--5--0--0--0--0--0--0--0--0--0--0--0--0--0--0--0--0---
B|--7--7--7--7--7--7--7--7--7--7--7--7--7--7--7--7--0--0--0--0--0--0--0--0--0--0--0--0--0--0--0--0---
G|--6--6--6--6--6--6--6--6--6--6--6--6--6--6--6--6--6--6--6--6--6--6--6--6--6--6--6--6--6--6--6--6---
D|--7--7--7--7--7--7--7--7--7--7--7--7--7--7--7--7--7--7--7--7--7--7--7--7--7--7--7--7--7--7--7--7---
A|--5--5--5--5--5--5--5--5--5--5--5--5--5--5--5--5--7--7--7--7--7--7--7--7--7--7--7--7--7--7--7--7---
E|--5--5--5--5--5--5--5--5--5--5--5--5--5--5--5--5--5--5--5--5--5--5--5--5--5--5--5--5--5--5--5--5---

                            Am I drifting down the  ti-de?                  Oaaah

   Dmaj7                                            Aadd9                   E9
E|--5--5--5--5--5--5--5--5--5--5--5--5--5--5--5--5--0--0--0--0--0--0--0--0--9--9--9--9--9--9--9--9---
B|--7--7--7--7--7--7--7--7--7--7--7--7--7--7--7--7--0--0--0--0--0--0--0--0--9--9--9--9--9--9--9--9---
G|--6--6--6--6--6--6--6--6--6--6--6--6--6--6--6--6--6--6--6--6--6--6--6--6--9--9--9--9--9--9--9--9---
D|--7--7--7--7--7--7--7--7--7--7--7--7--7--7--7--7--7--7--7--7--7--7--7--7--9--9--9--9--9--9--9--9---
A|--5--5--5--5--5--5--5--5--5--5--5--5--5--5--5--5--7--7--7--7--7--7--7--7--7--7--7--7--7--7--7--7---
E|--5--5--5--5--5--5--5--5--5--5--5--5--5--5--5--5--5--5--5--5--5--5--5--5--0--0--0--0--0--0--0--0---

STOP! 8bars rest


VERSE2
Two, two oclock you're mine
I'm not brave enough to climb
Have, you drank too much
You, you're acting kinda rough


Chorus
Are you in another mind       Oaah
Am I drifting down the tide   Oaah


SOLO (boost gain)  IMRPOVISE MUCKAROUND! The next 64 bars are yours


CHORUS (not chord change)
                            Are you in another      mi-ind                  Oaah

     Dadd9                                          Aadd9
E|--0--0--0--0--0--0--0--0--0--0--0--0--0--0--0--0--0--0--0--0--0--0--0--0--0--0--0--0--0--0--0--0---
B|--0--0--0--0--0--0--0--0--0--0--0--0--0--0--0--0--0--0--0--0--0--0--0--0--0--0--0--0--0--0--0--0---
G|--11-11-11-11-11-11-11-11-11-11-11-11-11-11-11-11-6--6--6--6--6--6--6--6--6--6--6--6--6--6--6--6---
D|--12-12-12-12-12-12-12-12-12-12-12-12-12-12-12-12-7--7--7--7--7--7--7--7--7--7--7--7--7--7--7--7---
A|--12-12-12-12-12-12-12-12-12-12-12-12-12-12-12-12-7--7--7--7--7--7--7--7--7--7--7--7--7--7--7--7---
E|--10-10-10-10-10-10-10-10-10-10-10-10-10-10-10-10-5--5--5--5--5--5--5--5--5--5--5--5--5--5--5--5---

                            Am I drifting down the  ti-de?                  Oaaah

   Dmaj7                                            Aadd9                   E9
E|--0--0--0--0--0--0--0--0--0--0--0--0--0--0--0--0--0--0--0--0--0--0--0--0--9--9--9--9--9--9--9--9---
B|--0--0--0--0--0--0--0--0--0--0--0--0--0--0--0--0--0--0--0--0--0--0--0--0--9--9--9--9--9--9--9--9---
G|--11-11-11-11-11-11-11-11-11-11-11-11-11-11-11-11-6--6--6--6--6--6--6--6--9--9--9--9--9--9--9--9--
D|--12-12-12-12-12-12-12-12-12-12-12-12-12-12-12-12-7--7--7--7--7--7--7--7--9--9--9--9--9--9--9--9--
A|--12-12-12-12-12-12-12-12-12-12-12-12-12-12-12-12-7--7--7--7--7--7--7--7--7--7--7--7--7--7--7--7--
E|--10-10-10-10-10-10-10-10-10-10-10-10-10-10-10-10-5--5--5--5--5--5--5--5--0--0--0--0--0--0--0--0--


OUTRO
                            Are you in another      mi-ind                  Oaah
E|--------------------------------------------------------------------------------------------------
B|--7--7--7--7--7--7--7--7--7--7--7--7--7--7--7--7--5--5--5--5--5--5--5--5--5--5--5--5--5--5--5--5--
G|--------------------------------------------------------------------------------------------------
D|--------------------------------------------------------------------------------------------------
A|--------------------------------------------------------------------------------------------------
E|--------------------------------------------------------------------------------------------------

                            Am I drifting down the  ti-de?                  Oaaah
E|--------------------------------------------------------------------------------------------------------
B|--7--7--7--7--7--7--7--7--7--7--7--7--7--7--7--7--5--5--5--5--5--5--5--5--9--9--9--9--9--9--9--9--7-----
G|--------------------------------------------------------------------------------------------------------
D|--------------------------------------------------------------------------------------------------------
A|--------------------------------------------------------------------------------------------------------
E|--------------------------------------------------------------------------------------------------------






Use manual mode to free up cursor. Paste any tab in acousterr tab maker and we'll play it !!!
tabs and chords, guitar tabs, music transcription, music technology, deep learning, music information retrieval, transcribe into tabs & chords, chordify, music renditions, songsterr, reverbnation, tabulature, bollywood chords, ultimate guitar, yousician, guitar lessons, acoustic guitar, electric guitar, guitar tuner, 911 tabs