Bullet For My Valentine - Intro - Guitar Tabs

(/) Slide Up  (\) Slide Down  (h) Hammer On  (p) Pull Off  (b) Bend (r) Release (v) Vibrato (x) Muted

Tabs for Song : 
BPM : 180

Song lyrics here 
D|--------------------------------------------------------------------------------------------------]
A|--------------------------------------------------------------------------------------------------
F|-----------------7--5--7-----------------7--5--7-----3--2--3-----3--2--------3--2--3-----3--5--3--
C|-----8--7--8-----------------8--7--8-----------------------------------3--------------------------
G|--------------------------------------------------------------------------------------------------
C|--5-----------5-----------5-----------5-----------1-----------1-----------1-----------3-----------

Song lyrics here 
D|--
A|--
F|--
C|--
G|--
C|--

Use manual mode to free up cursor. Paste any tab in acousterr tab maker and we'll play it !!!

Bullet For My Valentine - Intro - Guitar Tabs






D|--------------------------------------------------------------------------------------------------
A|-----------------8--6--8-----------------8--6--8-----3--1--3-----3--1--------3--1--3-----3--4--3--
F|-----7--5--7-----------------7--5--7-----------------------------------3--------------------------
C|--------------------------------------------------------------------------------------------------
G|--------------------------------------------------------------------------------------------------
C|--5-----------5-----------5-----------5-----------1-----------1-----------1-----------3-----------


D|--
A|--
F|--
C|--
G|--
C|--

Bullet For My Valentine - Intro - Bass Tabs











F|--------------------------------------------------------------------------------------------------
C|--------------------------------------------------------------------------------------------------
G|--------------------------------------------------------------------------------------------------
C|--5--5--5--5--5--5--5--5--5--5--5--5--5--5--5--5--1--1--1--1--1--1--1--1--1--1--1--1--3--3--3--3--




F|--
C|--
G|--
C|--

About Bullet for My Valentine : The band is currently composed of Matthew Tuck (lead vocals, rhythm guitar), Michael Paget (lead guitar, backing vocals), Jason Bowld (drums) and Jamie Mathias (bass guitar) Former members include Michael Thomas, Jason James and Nick Crandle . Bullet for My Valentine's Valentine's debut album The Poison was released on 3 October 2005 in the UK and on 14 February 2006 in the United States . The Poison album entered the U.S. Billboard 200 at number 128 . It was certified gold by the Recording Industry Association of America . Jeff Killed John was formed in 1998 by Matthew Tuck, Michael "Padge" Paget, Nick Crandle and Michael "Moose" Thomas . In 1999, the band released their first EP, Better Off Alone . Bullet for My Valentine The group has many notable artists like Matthew Tuck,Michael Paget,Jason Bowld,Jamie Mathias,Michael Thomas,Jason James,Nick Crandle. Their music is influenced by genres - metalcore heavy metal thrash metal hard rock.

tabs and chords, guitar tabs, music transcription, music technology, deep learning, music information retrieval, transcribe into tabs & chords, chordify, music renditions, songsterr, reverbnation, tabulature, bollywood chords, ultimate guitar, yousician, guitar lessons, acoustic guitar, electric guitar, guitar tuner, 911 tabs