Guitar Tabs for Bullet For My Valentine- Alone

(/) Slide Up  (\) Slide Down  (h) Hammer On  (p) Pull Off  (b) Bend (r) Release (v) Vibrato (x) Muted

Tabs for Song : 
BPM : 300

Song lyrics here 
D|--------------------------------------------------------------------------------------------------
A|--------------------------------------------------------------------------------------------------
F|--------------------------------------------------------------------------------------------------
C|--2--2--4--2--4--2--2--2--5--2--5--2--2--2--2--2--2--2--4--2--4--2--2--2--5--7--5--0--4--0--4--5--
G|--2--2--------------2--2--------------2--2--2--2--2--2--------------2--2--------------------------
C|--2--2--------------2--2--------------2--2--2--2--2--2--------------2--2--------------------------

Song lyrics here 
D|--
A|--
F|--
C|--
G|--
C|--

Use manual mode to free up cursor. Paste any tab in acousterr tab maker and we'll play it !!!

Guitar Tabs for Bullet For My Valentine- Alone






D|--------------------------------------------------------------------------------------------------
A|--------------------------------------------------------------------------------------------------
F|--------------------------------------------------------------------------------------------------
C|--2--2--------------2--2--------------2--2--2--2--2--2--------------2--2--9--10-9--0--7--0--7--9--
G|--2--2--------------2--2--------------2--2--2--2--2--2--------------2--2--------------------------
C|--2--2--------------2--2--------------2--2--2--2--2--2--------------2--2--------------------------


D|--
A|--
F|--
C|--
G|--
C|--

Bass Tabs for Bullet For My Valentine- Alone






F|--------------------------------------------------------------------------------------------------
C|--------------------------------------------------------------------------------------------------
G|--------------------------------------------------------------------------------------------------
C|--2--2--------------2--2--------------2--2--2--2--2--2--------------2--2--------------------------




F|--
C|--
G|--
C|--

tabs and chords, guitar tabs, music transcription, music technology, deep learning, music information retrieval, transcribe into tabs & chords, chordify, music renditions, songsterr, reverbnation, tabulature, bollywood chords, ultimate guitar, yousician, guitar lessons, acoustic guitar, electric guitar, guitar tuner, 911 tabs