Guitar Tabs for Breakup song

Tabs for Song : Breakup song

Dil pe patthar rakh ke
E|--------------------------------
B|--------0--0--0-----------------
G|-----------------3--3--3--1-----
D|--4--4--------------------------
A|--------------------------------
E|--------------------------------

Munh pe makeup kar liya
E|-----------------------------
B|-----------------------------
G|-----------1-----------------
D|--4--4--4-----4--1--2--4-----
A|-----------------------------
E|-----------------------------

Mere saiyyan ji se aaj
E|--------------------------------
B|--------------------------------
G|--------------------------------
D|--4--4--4--4--1--1--1-----------
A|-----------------------4--2-----
E|--------------------------------

Maine breakup kar liya
E|-----------------------------
B|-----------------------------
G|--------------1--4--1--------
D|--4--4--4--4-----------4-----
A|-----------------------------
E|-----------------------------

Subah savere uth ke maine
E|--------------------------------
B|--------------------------------
G|--------------------------------
D|--4--4--4--4--1--1--1-----------
A|-----------------------4--2-----
E|--------------------------------

Ye sab kar liya
E|-----------------------------
B|-----------------------------
G|--------------1--4--1--------
D|--4--4--4--4-----------4-----
A|-----------------------------
E|-----------------------------

Mere saiyyan ji se aaj
E|--------------------------------
B|--------------------------------
G|--------------------------------
D|--4--4--4--4--1--1--1-----------
A|-----------------------4--2-----
E|--------------------------------

Maine breakup kar liya
E|-----------------------------
B|-----------------------------
G|--------------1--4--1--------
D|--4--4--4--4-----------4-----
A|-----------------------------
E|-----------------------------



tabs and chords, guitar tabs, music transcription, music technology, deep learning, music information retrieval, transcribe into tabs & chords, chordify, music renditions, songsterr, reverbnation, tabulature, bollywood chords, ultimate guitar, yousician, guitar lessons, acoustic guitar, electric guitar, guitar tuner, 911 tabs