Bass Tabs for Brand New Satan Bass

(/) Slide Up  (\) Slide Down  (h) Hammer On  (p) Pull Off  (b) Bend (r) Release (v) Vibrato (x) Muted

Tabs for Song : 
BPM : 50

Intro 
F|-----------------------------------------------------------------------------------
C|-----------------------------------------------------------------------------------
G|-----------------------------------------------------------------------------------
C|--0-----------------------12-12-12-12-12-12-12-12-12-12-12-12-12-12-12-12-12-12-12-
 
 INtro Pt 2

F|-----------------------------------------------------------------------------------
C|-----------------------------------------------------------------------------------
G|-----------------------------------------------------------------------------------
C|--0--------0-----0--0--0--------0--------------------------0-----------------------

Verse
F|-----------------------------------------------------------------------------------
C|-----------------------------------------------------------------------------------
G|-----1--0--------------1--0--------------------1--0--------------------------------
C|--0--------3--2--1--0-----------0-----0-----0--------3--2--1--6--5--3--2--0--1--0--

Bridge

F|-----------------------------------------------------------------------------------------
C|-----------------------------------------------------------------------------------------
G|--5-----3-----------------------------------5-----------3--------------------------------
C|-----6-----5--3--5--0-----0--0--0--0--0--0--------6--------5--3--5--3-----3--5--5-----5--

Chorus
F|-----------------------------------------------------------
C|-----------------------------------------------------------
G|--------5--------------------------------------------------
C|--0-----------6-----5-----3-----3--3-----6--6-----5--5-----

F|-----------------------------------------------------------
C|-----------------------------------------------------------
G|--------5-----------------------------------------7--------
C|--0-----------6-----5-----3-----3--3-----7--7--------------

Chorus Pt2
F|--------------------------------------------
C|--------------------------------------------
G|--------------------------------------------
C|--3--3-----8--8-----7--7-----0--3--2--1--0--

Breakdown/solo

F|-----------------------------------------------------------------------------------------
C|-----------------------------------------------------------------------------------------
G|-----------------------------------------------------------------------------------------
C|--0-----3--0--0-----0--------0--3--0--0-----0-----------0--0--3--0-----0--0--3--0--3--0--

Outro

F|-----------------------------------------teL//
C|-----------------------------------------
G|-----------------------------------------
C|--0--0-----0--0-----0--0--------------0--

Order of Riff:
INTRO
Intro PT2
Verse x4
bridge
Chorus
Intro PT2
Verse x2
Chorus
Break/Solo veers into Intro PT2
Bridge
Chorus
Outro (let ring and slide down)


Use manual mode to free up cursor. Paste any tab in acousterr tab maker and we'll play it !!!
tabs and chords, guitar tabs, music transcription, music technology, deep learning, music information retrieval, transcribe into tabs & chords, chordify, music renditions, songsterr, reverbnation, tabulature, bollywood chords, ultimate guitar, yousician, guitar lessons, acoustic guitar, electric guitar, guitar tuner, 911 tabs