Guitar Tabs for Brand New Satan

(/) Slide Up  (\) Slide Down  (h) Hammer On  (p) Pull Off  (b) Bend (r) Release (v) Vibrato (x) Muted

Tabs for Song : 
BPM : 265

Main Structure of Song
D|-----------------------------------------------------------------------7-
A|-----------------------------------------------------------------------
F|-----------------------------------------------------------------------
C|-----------------------------------------------------------------------
G|--0--0--7--8--7--0--0--8--10-8--0--0--7--8--7-----8--10-8-----6--7--6--
C|--0--0-----------0--0-----------0--0-----------------------------------

Verse
D|-----------------------------------------------------------------------------------------------------------
A|-----------------------------------------------------------------------------------------------------------
F|-----------------------------------------------------------------------------------------------------------
C|--0-----3--0--------------0-----3--0-----------------------0-----3--0--------------6-----5-----3--1--0--1--
G|--0-----1--0--------------0-----1--0-----------------------0-----1--0--------------6-----5-----3--1--0--1--
C|--0--------------3--2--1--0--------------0--0--0--0--0--0--0--------------3--2--1--6-----5-----3--1--0--1--

Bridge
D|-----------------------------------------------------------------------------------
A|-----------------------------------------------------------------------------------
F|-----------------------------------------------------------------------------------
C|--------------------------------------------------------3--5--3-----3--5--5-----5--
G|--5-----3-----------------------------------5-----3-----3--5--3-----3--5--5-----5--
C|-----6-----5--3--5--0-----0--0--0--0--0--0-----6-----5--3--5--3-----3--5--5-----5--

Chorus
D|-----------------------------------------------------------------
A|-----------------------------------------------------------------
F|-----------------------------------------------------------------
C|--------------------------------------------3--3---3/6--6--6--5--
G|-----------5--0--0--------------------------3--3---3/6--6--6--5--
C|-----0--0-----------6--0--0--5--0--0--3--0--3--3---3/6--6--6--5--

D|-----------------------------------------------------------------------
A|-----------------------------------------------------------------------
F|-----------------------------------------------------------------------
C|--------------------------------------------3--3---3/7--7--7-----------
G|-----------5--0--0--------------------------3--3---3/7--7--7---7b-8b7--
C|-----0--0-----------6--0--0--5--0--0--3--0--3--3---3/7--7--7-----------

D|-----------------------------------------------------
A|-----------------------------------------------------
F|-----------------------------------------------------
C|--3--3--------8--8--------7--7--7--------3--2--1--0--
G|--3--3--------8--8--------7--7--7--------3--2--1--0--
C|--3--3--------8--8--------7--7--7--0--0--3--2--1--0--

Mid Song Solo:
D|-----------------------------------------------------
A|-----------------------------------------------------
F|-----------------------------------------------------
C|-----------------------------------------------------
G|-----------------------------------------------------
C|--0--0--0--0--3--0--0--0--0--0--3--0--0--0--3--0-----

Paste any tab in acousterr's tab maker and we'll play it !!!
Now supports capo and sound effects for vibrato/pull-off/hammer/bends/mutes etc !!! Checkout help section
tabs and chords, guitar tabs, music transcription, music technology, deep learning, music information retrieval, transcribe into tabs & chords, chordify, music renditions, songsterr, reverbnation, tabulature, bollywood chords, ultimate guitar, yousician, guitar lessons, acoustic guitar, electric guitar, guitar tuner, 911 tabs