Guitar Tabs for Boond Boond Main Just 2 Stings

(/) Slide Up  (\) Slide Down  (h) Hammer On  (p) Pull Off  (b) Bend (r) Release (v) Vibrato (x) Muted

Tabs for Song : Boond Boond Main(Most Easiest Tabs)

Intro
E|--8--7---7/8--------8--12-10-12/13-12-10-12----7--8--10-7-----10----7-----7--------7--------12-
B|-----------------10----------------------------------------8-----------8-----9--5--------------
G|-----------------------------------------------------------------------------------------------
D|-----------------------------------------------------------------------------------------------
A|-----------------------------------------------------------------------------------------------
E|-----------------------------------------------------------------------------------------------

Boond Boond Main Ghoom Sa Hai
E|---4/5--5--7--7--8-----------------
B|-----------------------6--6--5--6--
G|-----------------------------------
D|-----------------------------------
A|-----------------------------------
E|-----------------------------------

Paste any tab in acousterr's tab maker and we'll play it !!!
Now supports capo and sound effects for vibrato/pull-off/hammer/bends/mutes etc !!! Checkout help section

Ye Sawaan Bhi Tu Tumsa Hai
E|-----------5--5--7--------------------
B|---6/8--8--------------6--6-----5--5--
G|--------------------------------------
D|--------------------------------------
A|--------------------------------------
E|--------------------------------------

Repeat the above part

ek ajnaabi sa ehsas hai
E|--5--12-12-10-10-8--7--7--8--8--
B|--------------------------------
G|--------------------------------
D|--------------------------------
A|--------------------------------
E|--------------------------------

kuch hai na kuch khas hai
same as above

kusoor ye sara mosam ka hai
E|--5--5--7--7--5--7--5-----------------------
B|-----------------------6-----6--6--6-----5--
G|--------------------------------------------
D|--------------------------------------------
A|--------------------------------------------
E|--------------------------------------------

then again boond boond main ghum sa hai
ye sawaan bhi tu tumsa hai

Lead Part
E|--5--7---7/8--7--5--------10-10-10-10-12-12-12-12-
B|--------------------6-----------------------------
G|--------------------------------------------------
D|--------------------------------------------------
A|--------------------------------------------------
E|--------------------------------------------------

E|--5--7---7/8---8\7--5--5-----12-12-12-12-12-12-12-12-
B|-----------------------------------------------------
G|-----------------------------------------------------
D|-----------------------------------------------------
A|-----------------------------------------------------
E|-----------------------------------------------------


Chalne do maan marziya
hone do ghuztakhiya
E|--8--7--8--7--8--10-10----7--5--7--5--7--8--8--
B|-----------------------------------------------
G|-----------------------------------------------
D|-----------------------------------------------
A|-----------------------------------------------
E|-----------------------------------------------

same as above line for
phir kaha ye phorsaten
phir kaha nazdikiyan

keh do tum bhi kahin
lapata to nahi
E|--5--7--8--7--5-----------5--7--8--7--5--5--
B|-----------------6--------------------------
G|--------------------------------------------
D|--------------------------------------------
A|--------------------------------------------
E|--------------------------------------------


Dil tumhara bhi kuch
Chahata to nahi
E|--5--7--8--7--5--------------5--7--8--7--5--5--
B|-----------------6--6--------------------------
G|-----------------------------------------------
D|-----------------------------------------------
A|-----------------------------------------------
E|-----------------------------------------------


again repeat from start to complete tha whole song
but this time you'll have to skip ka leads

if you like this so please subscribe to my Youtube channel
thanks alot
https://youtu.be/mwNqA6u9QAc
tabs and chords, guitar tabs, music transcription, music technology, deep learning, music information retrieval, transcribe into tabs & chords, chordify, music renditions, songsterr, reverbnation, tabulature, bollywood chords, ultimate guitar, yousician, guitar lessons, acoustic guitar, electric guitar, guitar tuner, 911 tabs