Bass Tabs for Boogie Woogie Bugle Boy - Bass

G|-----2--5--7--10-7--5--2-----2--5--7--10-7--5--2-----0--2--5--7--5--2--0-----0--2--5--10-7--5--2--
D|--3-----------------------3-----------------------3-----------------------3-----------------------
A|--------------------------------------------------------------------------------------------------
E|--------------------------------------------------------------------------------------------------

G|--3--7--10-12-13-12-10-7-----0--2--5--10-7--3--4--5--9--12-5--4--3--7--10-12-14-10-7--5--2-----0--2--5--
D|--------------------------3-----------------------------------------------------------------3-----------
A|--------------------------------------------------------------------------------------------------------
E|--------------------------------------------------------------------------------------------------------

G|-----------------------------------------------------------0--1-----------------------------------
D|--------------------------------------3--0-----------0--3--------3--0-----------------3--0--------
A|--------------------------------0--3--------3--0--1--------------------3--------0--3--------1--2--
E|--------------------------1--3--------------------------------------------1--3--------------------

G|--------0-----------------0--2--------------------------5--------5-----------------------------------------
D|-----2--------------0--3--------3--0-----------------------------------------------------------------------
A|--3--------3--2--1--------------------3--0--------0--3-----3--------3-----3-----3-----3-----3-----3--------
E|--------------------------------------------1--3-----------------------------------------------------------

G|-----------------------------------------------------------0--1--0--------------------------------
D|--------------0-----------------------3--0-----------0--3-----------3--0--------------3--0--------
A|--------0--3-----3--0-----------0--3--------3--0--1-----------------------------0--3--------1--2--
E|--1--3-----------------3--1--3--------------------------------------------1--3--------------------

G|--------0-----------------0--1--------------------------
D|-----2--------------0--3--------3--0--------------------
A|--3--------3--2--1--------------------3--0--------0--3--
E|--------------------------------------------1--3--------



tabs and chords, guitar tabs, music transcription, music technology, deep learning, music information retrieval, transcribe into tabs & chords, chordify, music renditions, songsterr, reverbnation, tabulature, bollywood chords, ultimate guitar, yousician, guitar lessons, acoustic guitar, electric guitar, guitar tuner, 911 tabs