Lover Boy - Guitar Tabs

(/) Slide Up  (\) Slide Down  (h) Hammer On  (p) Pull Off  (b) Bend (r) Release (v) Vibrato (x) Muted

Tabs for Song :CCChorus riff
E|--------------------------------------------------------------------------------------------------
B|-----------4--4--------------------4--4--------------------9--9--------------------9--9-----------
G|--------4--------4-----6--------4--------4-----6--------9--------9-----11-------9--------9-----11-
D|--4--6--------------4-----4--6--------------4-----9--11-------------9-----9--11-------------9-----
A|--------------------------------------------------------------------------------------------------
E|--------------------------------------------------------------------------------------------------

BPM : 200
Intro riff
Song lyrics here 
E|--9--9--7--9--7--2--2--2--0--4--11-11-9--11-9--4--4--4--7--9--7--9--9--7--9--7--2--2--2--0--4--11-11-9--11-9--------------------------
B|-----------------------------------------------------------------------------------------------------------9--------------------------
G|-----------------------------------------------------------------------------------------------------------9--------4-----------4-----
D|--------------------------------------------------------------------------------------------------------------4--6-----6--4--6-----6--
A|--------------------------------------------------------------------------------------------------------------------------------------
E|--------------------------------------------------------------------------------------------------------------------------------------
The other thing 
Song lyrics here 
E|--------------------------------------------------------------------------------------------------------------------
B|--------------------------------------------------------------------------------------------------------------------
G|--------4--4-----4-----------4--4--------------------4--4--------------------4--4--------------------4--4-----6--4--
D|--4--6--------6-----6--4--6--------6--4--6-----4--6--------6--4--6--6--4--6--------6--4--6-----4--6--------6--------
A|--------------------------------------------6-----------------------------------------------6-----------------------
E|--------------------------------------------------------------------------------------------------------------------

Use manual mode to free up cursor. Paste any tab in acousterr tab maker and we'll play it !!!

About Good Old-Fashioned Lover Boy : "Good Old-Fashioned Lover Boy" was written by Freddie Mercury . It was one of several British music hall-inspired songs composed by members of the band . The song begins with a piano and vocal introduction by Mercury . At this point, the drums, bass and guitar drop out, which then leads into the bridge . The second verse is sung, followed by another chorus . The song describes how "a good old-fashioned lover boy" is looking forward It was released in 1977. It was released as part of album A Day at the Races. The genre is glam rock music hall. The track was release in 1977. Good Old-Fashioned Lover Boy has a significant contribution from artist(s) Freddie Mercury. It is related to the album(s) - A Day at the Races. The track has an affiliation to the band(s) - Queen.

About Queen (band) : Queen formed in London in 1970 . Their classic line-up was Freddie Mercury, Brian May, Roger Taylor and John Deacon . Their earliest works were influenced by progressive rock, hard rock and heavy metal . Mercury was a fan of Smile and encouraged them to experiment with more elaborate stage and recording techniques . Deacon was recruited in March 1971, before the band released their eponymous debut album in 1973 . Queen first charted in the UK with their second album, Queen II in 1974 . The band's 1977 album News of the World contained "We Will Rock You" and "We Are the Champions", which have become anthems at sporting events . The 1981 compilation album Greatest Hits is the best-selling album in the UK . Queen (band) The group has many notable artists like Freddie Mercury,Brian May,Roger Taylor,John Deacon. Their music is influenced by genres - rock.

About A Day at the Races (album) : A Day at the Races is the fifth studio album by the British rock band Queen . It was the band's first completely self-produced album, and the first not to feature Roy Thomas Baker . The album peaked at number one in the UK, Japan and the Netherlands . It was voted the 67th greatest album of all time in a national 2006 BBC poll . Queen entered The Manor in July 1976 to commence work on A Day At The Races . Absent was Roy Thomas Baker who had helped the band produce their last four albums . Queen returned to the studio in late September to finish the album . Its music is influenced by genres - hard rock progressive rock glam rock.

tabs and chords, guitar tabs, music transcription, music technology, deep learning, music information retrieval, transcribe into tabs & chords, chordify, music renditions, songsterr, reverbnation, tabulature, bollywood chords, ultimate guitar, yousician, guitar lessons, acoustic guitar, electric guitar, guitar tuner, 911 tabs